» » »

Krezip, Can't You Be Mine Tabs (ver.1)

Artists:  A B C D E F G H I J K L M N O P Q R S T U V W X Y Z # 

Can't You Be Mine Tabs (ver.1)

Krezip Tabs
 Rating:
4.2/5 (5 votes)
Can't You Be Mine lessons Tabs too difficult? Try these video lessons and learn fast
1
                Band:        Krezip
Tuning:      Standard (EADGBe)

S = staccato

Intro: 

Synthesizer:
 
   C#m        B         F          E 
e|--------------------|--------------------|
B|-------5----------4-|-------2------0-----|
G|-----6----------4---|-----3----------1---|        2x
D|--------------------|------------------2-|
A|-4-4--------2-2-----|--------------------|
E|--------------------|-2-2--------0-------|


Verse 1:

Synthesizer:
 
   C#m        B         F          E 
e|--------------------|--------------------|
B|-------5----------4-|-------2------0-----|
G|-----6----------4---|-----3----------1---| 4x
D|--------------------|------------------2-|
A|-4-4--------2-2-----|--------------------|
E|--------------------|-2-2--------0-------|

After 8 Bars:

Guitar:

e|-----------------|
B|-----------------|
G|-x-x-x-x-x-x-x-x-|
D|-x-x-x-x-x-x-x-x-|
A|-x-x-x-x-x-x-x-x-|
E|-x-x-x-x-x-x-x-x-|


      C#m    B           F     E

   1 & 2 & 3 & 4 &   1 & 2 & 3 & 4 &
e|-----4-----2-----|-----2-----0-----|
B|-----5-----4-----|-----2-----0-----|
G|-----6-----4-----|-----3-----1-----|       3x
D|-----6-----4-----|-----4-----2-----|
A|-----4-----2-----|-----4-----2-----|
E|-----------------|-----2-----0-----|
       S                 S


      C#m    B           F     E

   1 & 2 & 3 & 4 &   1 & 2 & 3 & 4 &
e|-----4-----2-----|-----2-----0-0-0-|
B|-----5-----4-----|-----2-----0-0-0-|
G|-----6-----4-----|-----3-----1-1-1-|        1x
D|-----6-----4-----|-----4-----2-2-2-|
A|-----4-----2-----|-----4-----2-2-2-|
E|-----------------|-----2-----0-0-0-|
       S                 S

Chorus 1:

Synthesizer:
 
     
e|-4-4-2-4--4-4-2-4-|-4-4-2-4--4-4-2-4-|
B|-4-4-2-4--4-4-2-4-|-4-4-2-4--4-4-2-4-|
G|------------------|------------------|      4x
D|------------------|------------------|
A|------------------|------------------|
E|------------------|------------------|


Guitar:

   G#                B
e|-----------------|-----------------|
B|-----------------|-----------------|
G|-----------------|-4-4-4-4-4-4-4-4-|        
D|-6-6-6-6-6-6-6-6-|-4-4-4-4-4-4-4-4-|
A|-6-6-6-6-6-6-6-6-|-2-2-2-2-2-2-2-2-|
E|-4-4-4-4-4-4-4-4-|-----------------|
                    
                                            > 2x
   F#                G#
e|-----------------|-----------------|
B|-----------------|-----------------|
G|-----------------|-----------------|        
D|-4-4-4-4-4-4-4-4-|-6-6-6-6-6-6-6-6-|
A|-4-4-4-4-4-4-4-4-|-6-6-6-6-6-6-6-6-|
E|-2-2-2-2-2-2-2-2-|-4-4-4-4-4-4-4-4-|

 
Verse 2:

Synthesizer:
 
   C#m        B         F          E 
e|--------------------|--------------------|
B|-------5----------4-|-------2------0-----|
G|-----6----------4---|-----3----------1---| 8x
D|--------------------|------------------2-|
A|-4-4--------2-2-----|--------------------|
E|--------------------|-2-2--------0-------|


Guitar:

e|-----------------|
B|-----------------|
G|-x-x-x-x-x-x-x-x-|
D|-x-x-x-x-x-x-x-x-|
A|-x-x-x-x-x-x-x-x-|
E|-x-x-x-x-x-x-x-x-|


      C#m    B           F     E

   1 & 2 & 3 & 4 &   1 & 2 & 3 & 4 &
e|-----4-----2-----|-----2-----0-----|
B|-----5-----4-----|-----2-----0-----|
G|-----6-----4-----|-----3-----1-----|       7x
D|-----6-----4-----|-----4-----2-----|
A|-----4-----2-----|-----4-----2-----|
E|-----------------|-----2-----0-----|
       S                 S


      C#m    B           F     E

   1 & 2 & 3 & 4 &   1 & 2 & 3 & 4 &
e|-----4-----2-----|-----2-----0-0-0-|
B|-----5-----4-----|-----2-----0-0-0-|
G|-----6-----4-----|-----3-----1-1-1-|        1x
D|-----6-----4-----|-----4-----2-2-2-|
A|-----4-----2-----|-----4-----2-2-2-|
E|-----------------|-----2-----0-0-0-|
       S                 S

 
Chorus 1:

Synthesizer:
 
     
e|-4-4-2-4--4-4-2-4-|-4-4-2-4--4-4-2-4-|
B|-4-4-2-4--4-4-2-4-|-4-4-2-4--4-4-2-4-|
G|------------------|------------------|      8x
D|------------------|------------------|
A|------------------|------------------|
E|------------------|------------------|


Guitar:

   G#                B
e|-----------------|-----------------|
B|-----------------|-----------------|
G|-----------------|-4-4-4-4-4-4-4-4-|        
D|-6-6-6-6-6-6-6-6-|-4-4-4-4-4-4-4-4-|
A|-6-6-6-6-6-6-6-6-|-2-2-2-2-2-2-2-2-|
E|-4-4-4-4-4-4-4-4-|-----------------|
                    
                                            > 4x
   F#                G#
e|-----------------|-----------------|
B|-----------------|-----------------|
G|-----------------|-----------------|        
D|-4-4-4-4-4-4-4-4-|-6-6-6-6-6-6-6-6-|
A|-4-4-4-4-4-4-4-4-|-6-6-6-6-6-6-6-6-|
E|-2-2-2-2-2-2-2-2-|-4-4-4-4-4-4-4-4-|


Pre-Bridge:

   B                 C#
e|-----------------|-----------------|
B|-----------------|-----------------|
G|-4-4-4-4-4-4-4-4-|-6-6-6-6-6-6-6-6-|        
D|-4-4-4-4-4-4-4-4-|-6-6-6-6-6-6-6-6-|
A|-2-2-2-2-2-2-2-2-|-4-4-4-4-4-4-4-4-|
E|-----------------|-----------------|
                 
                                            > 2x
   G#                G#
e|-----4---4-4-----|-----4---4-4-----|
B|-----4---4-4-----|-----4---4-4-----|
G|-----5---5-5-----|-----5---5-5-----|        
D|-6-6-6-6-6-6---6-|-6-6-6-6-6-6-----|
A|-6-6---6-------6-|-6-6---6---------|
E|-4-4---4-------4-|-4-4---4---------|
 
   B                 G#
e|-----------------|-----------------|-----------------|
B|-----------------|-----------------|-----------------|
G|-4-4-4-4-4-4-4-4-|-----------------|-----------------|
D|-4-4-4-4-4-4-4-4-|-6---------------|-----------------|
A|-2-2-2-2-2-2-2-2-|-6---------------|-----------------|
E|-----------------|-4---------------|-----------------|
                 

Bridge:

Synthesizer:
      
e|-5-5-3-5--5-5-3-5-|-5-5-3-5--5-5-3-5-|
B|-5-5-3-5--5-5-3-5-|-5-5-3-5--5-5-3-5-|
G|------------------|------------------|      8x
D|------------------|------------------|
A|------------------|------------------|
E|------------------|------------------|


Guitar:

   A                 C
e|-----------------|-----------------|
B|-----------------|-----------------|
G|-----------------|-5-5-5-5-5-5-5-5-|        
D|-7-7-7-7-7-7-7-7-|-5-5-5-5-5-5-5-5-|
A|-7-7-7-7-7-7-7-7-|-3-3-3-3-3-3-3-3-|
E|-5-5-5-5-5-5-5-5-|-----------------|
                    
                                            > 3x
   D                 A
e|-----------------|-----------------|
B|-----------------|-----------------|
G|-7-7-7-7-7-7-7-7-|-----------------|        
D|-7-7-7-7-7-7-7-7-|-7-7-7-7-7-7-7-7-|
A|-5-5-5-5-5-5-5-5-|-7-7-7-7-7-7-7-7-|
E|-----------------|-5-5-5-5-5-5-5-5-|



   A                 C
e|-----------------|-----------------|
B|-----------------|-----------------|
G|-----------------|-5-5-5-5-5-5-5-5-|        
D|-7-7-7-7-7-7-7-7-|-5-5-5-5-5-5-5-5-|
A|-7-7-7-7-7-7-7-7-|-3-3-3-3-3-3-3-3-|
E|-5-5-5-5-5-5-5-5-|-----------------|
                    
                                            > 1x
   D                 A
e|-----------------|-----------------|
B|-----------------|-----------------|
G|-7-7-7-7-7-7-7-7-|-----------------|        
D|-7-7-7-7-7-7-7-7-|-7-7-7-7-7-------|
A|-5-5-5-5-5-5-5-5-|-7-7-7-7-7-------|
E|-----------------|-5-5-5-5-5-------|

                                                          Lex Razoux

Lyrics: 

All I do is waste another day on you 
Can't you be wasting all your days on me 

Take my hand 
You know it makes me lose my head 
'Cause you're my man 
But baby you don't know it yet 

Why can't you be mine 
In the daytime 
In the nighttime 
We'd have a good time 
Can't you be mine 

It's so easy 
You could please me 
Say you need me 
Can't you be mine 

Boy you're good 
'Cause Everytime I look at you 
I can't describe 
What you make me feel inside 

When you talk 
I only want to watch your mouth 
The way you walk 
makes me want to scream out loud 

Why can't you be mine 
In the daytime 
In the nighttime 
We'd have a good time 
Can't you be mine 

It's so easy 
You could please me 
Say you need me 
Can't you be mine 
I think about it think about it think about it 
You drive me wild 

So why can't you be mine 
In the daytime 
In the nighttime 
We'd have a good time 
Can't you be mine 

I'll blow your mind 
Think about it think about it think about it 
Give me just one night 
I'll make you shout it make you shout it make you shout it 
why ow why 

Why can't you be mine 
In the daytime 
In the nighttime 
We'd have a good time 
Can't you be mine 

It's so easy 
You could please me 
Say you need me 
Can't you be mine 
I think about it think about it think about it 
You drive me wild 

So why can't you be mine 
In the daytime 
In the nighttime 
We'd have a good time 
Can't you be mine
            
Submit corrections

comments powered by Disqus
↑ Back to top | Krezip Tabs for Can't You Be Mine. Lyrics for acoustic guitar and electric guitar. 1 Tablatures and chords are parodies/interpretations of the original songs. You may use it for private study, scholarship, research or language learning purposes only