» » »

Krezip, All Unsaid Bass tabs (ver.1)

Artists:  A B C D E F G H I J K L M N O P Q R S T U V W X Y Z # 

All Unsaid Bass tabs (ver.1)

Krezip Tabs
 Rating:
4/5 (4 votes)
All Unsaid lessons Tabs too difficult? Try these video lessons and learn fast
1
                Intro
-----

G)---------|---------|---------|---------|
D)---------|---------|---------|---------|
A)---------|---------|-2-2---0-|-0-------|
E)-0-0---0-|-3-3---3-|---------|-----3-2-|


Verse
------

G)-------------------|-----------------------|-------------------------|-------------------|
D)-------------------|-----------------------|-------------------------|-------------------|
G)---12---11---9---9-|----12----11----9----9-|----14----12----11----11-|---12---11---9---9-|
D)-9----9----9---9---|-10----10----10---10---|-12----12----12----12----|-9----9----9---9---|


Chorus
-------

G)---------|---------|---------|---------|---------|---------|---------|---------|
D)---------|---------|---------|---------|---------|---------|---------|---------|
A)---------|---------|-2-2---0-|-0-------|---------|---------|---------|---------|
E)-0-0---0-|-3-3---3-|---------|-----3-2-|-0-0-0-0-|-3-3-3-3-|-2-2-2-2-|-2-2-3-2-|


G)---------|---------|---------|---------|---------|---------|---------|---------|
D)---------|---------|---------|---------|---------|---------|---------|---------|
A)---------|---------|-2-2---0-|-0-------|---------|---------|---------|---------|
E)-0-0---0-|-3-3---3-|---------|-----3-2-|-0-0-0-0-|-3-3-3-3-|-2-2-2-2-|-2-2-3-2-|


G)---------|---------|---------|---------|---------|---------|---------|---------|
D)---------|---------|---------|---------|---------|---------|---------|---------|
A)---------|---------|-2-2-2-0-|-0-0-----|---------|---------|---------|---------|
E)-0-0-0-0-|-3-3-3-3-|---------|-----3-2-|-0-0-0-0-|-3-3-3-3-|-2-2-2-2-|-2-2-3-2-|


Bridge
------

G)---------|---------|---------|---------|---------|---------|---------|---------|
D)---------|---------|---------|---------|---------|---------|---------|---------|
A)-3-3-3-0-|-2-2-0-3-|-5-5-5-5-|-7-5-0-2-|-3-3-3-0-|-2-2-0-3-|-5-5-5-5-|-------2-|
E)---------|---------|---------|---------|---------|---------|---------|-0-2-3---|


G)---------|---------|---------|---------|---------|---------|---------|---------|
D)---------|---------|---------|---------|---------|---------|---------|---------|
A)-3-3-3-0-|-2-2-0-3-|-5-5-5-5-|-7-5-0-2-|-3-3-3-0-|-2-2-0-3-|-5-5-5-5-|-5-5-5-5-|
E)---------|---------|---------|---------|---------|---------|---------|---------|


solo
----

G)---------|---------|---12-11-9-|-12-11-9-12-|
D)---------|---------|-9--9--9-9-|--9--9-9--9-|
A)---------|---------|-----------|------------|
E)-0-0-x-0-|-3-3-x-x-|-----------|------------|

G)---------|---------|---------7-|------------|
D)---------|---------|---4-/-7---|-7----------|
A)---------|---------|-2---------|------------| 
E)-0-0-x-0-|-3-3---0-|-----------|-------3--2-|


Outro
------

G)---------|---------|---------|---------|---------|---------|---------|---------|
D)---------|---------|---------|---------|---------|---------|---------|---------|
A)---------|---------|-2-2---0-|-0-------|---------|---------|---------|---------|
E)-0-0-----|-3-3-----|---------|-----3-2-|-0-0-0-0-|-3-3-3-3-|-2-2-2-2-|-2-2-3-2-|


G)---------|---------|---------|---------|---------|---------|---------|---------|
D)---------|---------|---------|---------|---------|---------|---------|---------|
A)---------|---------|-2-2---0-|-0-------|---------|---------|---------|---------|
E)-0-0-----|-3-3-----|---------|-----3-2-|-0-0-0-0-|-3-3-3-3-|-2-2-2-2-|-2-2-3-2-|


G)---------|---------|---------|---------|---------|---------|---------|---------|
D)---------|---------|---------|---------|---------|---------|---------|---------|
A)---------|---------|-2-2-2-0-|-0-0-----|---------|---------|---------|---------|
E)-0-0-0-0-|-3-3-3-3-|---------|-----3-2-|-0-0-0-0-|-3-3-3-3-|-2-2-----|-3-3---2-|


G)---------|
D)---------|
A)---------|
E)--0~-----|
            
Submit corrections

comments powered by Disqus
↑ Back to top | Krezip Bass for All Unsaid. Lyrics for acoustic guitar and electric guitar. 1 Tablatures and chords are parodies/interpretations of the original songs. You may use it for private study, scholarship, research or language learning purposes only