» » »

Krezip, All Unsaid Tabs (ver.1)

Artists:  A B C D E F G H I J K L M N O P Q R S T U V W X Y Z # 

All Unsaid Tabs (ver.1)

Krezip Tabs
 Rating:
4/5 (4 votes)
All Unsaid lessons Tabs too difficult? Try these video lessons and learn fast
1
                -------------------------------------------------------------------------------
-------------------------------------------------------------------------------

Tuning:normal (EADGBe)

e|-----------------------------------------------------------------------------|
B|-----------------------------------------------------------------------------|
G|---------------------4-2-----------------------------------------------------|
D|-2-2-----2-5-5-----5-4-2-5-4-----2-2-2-2---5-5-5-5---4-4-4-4----4-4-5-4------|  x2
A|-2-2-----2-5-5-----5-2-0-5-4-----2-2-2-2---5-5-5-5---4-4-4-4----4-4-5-4------|
E|-0-0-----0-3-3-----3-----3-2-----0-0-0-0---3-3-3-3---2-2-2-2----2-2-3-2------|

e|-----------------------------------------------------------------------------|
B|-----------------------------------------------------------------------------|  -
G|---12---11---9-9--------12----11---9-9--------14----12---11-11---------------|   |
D|-9----9--------------10----10--------------12----12--------------------------|   |
A|-----------------------------------------------------------------------------|   |
E|-----------------------------------------------------------------------------|   |
                                                                                x4
e|-----------------------------------------------------------------------------|   |
B|-----------------------------------------------------------------------------|   |
G|---12---11---9-9-------------------------------------------------------------|   |
D|-9----9----------------------------------------------------------------------|  -
A|-----------------------------------------------------------------------------|
E|-----------------------------------------------------------------------------|

e|-----------------------------------------------------------------------------|
B|-----------------------------------------------------------------------------|
G|---------------------4-2-----------------------------------------------------|
D|-2-2-----2-5-5-----5-4-2-5-4-----2-2-2-2---5-5-5-5---4-4-4-4----4-4-5-4------|  x3
A|-2-2-----2-5-5-----5-2-0-5-4-----2-2-2-2---5-5-5-5---4-4-4-4----4-4-5-4------|
E|-0-0-----0-3-3-----3-----3-2-----0-0-0-0---3-3-3-3---2-2-2-2----2-2-3-2------|

e|-----------------------------------------------------------------------------|
B|-----------------------------------------------------------------------------|  -
G|---12---11---9-9--------12----11---9-9--------14----12---11-11---------------|   |
D|-9----9--------------10----10--------------12----12--------------------------|   |
A|-----------------------------------------------------------------------------|   |
E|-----------------------------------------------------------------------------|   |
                                                                                x4
e|-----------------------------------------------------------------------------|   |
B|-----------------------------------------------------------------------------|   |
G|---12---11---9-9-------------------------------------------------------------|   |
D|-9----9----------------------------------------------------------------------|  -
A|-----------------------------------------------------------------------------|
E|-----------------------------------------------------------------------------|

e|-----------------------------------------------------------------------------|
B|-----------------------------------------------------------------------------|
G|---------------------4-2-----------------------------------------------------|
D|-2-2-----2-5-5-----5-4-2-5-4-----2-2-2-2---5-5-5-5---4-4-4-4----4-4-5-4------|  x3
A|-2-2-----2-5-5-----5-2-0-5-4-----2-2-2-2---5-5-5-5---4-4-4-4----4-4-5-4------|
E|-0-0-----0-3-3-----3-----3-2-----0-0-0-0---3-3-3-3---2-2-2-2----2-2-3-2------|


                                - Bridge -


e|-----------------------------------------------------------------------------|
B|-----------------------------------------------------------------------------|
G|---------------------4-2-----------------------------------------------------|
D|-2-2-----2-5-5-----5-4-2-5-4-----2-2-2-2---5-5-5-5---4-4-4-4----4-4-5-4------|  x2
A|-2-2-----2-5-5-----5-2-0-5-4-----2-2-2-2---5-5-5-5---4-4-4-4----4-4-5-4------|
E|-0-0-----0-3-3-----3-----3-2-----0-0-0-0---3-3-3-3---2-2-2-2----2-2-3-2------|

e|-----------------------------------------------------------------------------|
B|-----------------------------------------------------------------------------|
G|---------------------4-2-----------------------------------------------------|
D|-2-2------5-5-----5-4-2-5-4-----2-2-2-2---5-5-5-5---4-4-4-4----4-4-5-4-------|  x2
A|-2-2------5-5-----5-2-0-5-4-----2-2-2-2---5-5-5-5---4-4-4-4----4-4-5-4-------|
E|-0-0------3-3-----3-----3-2-----0-0-0-0---3-3-3-3---2-2-2-2----2-2-3-2-------|

e|-----------------------------------------------------------------------------|
B|-----------------------------------------------------------------------------|
G|---------------------4-2-----------------------------------------------------|
D|-2-2-----2-5-5-----5-4-2-5-4-----2-2-2-2---5-5-5-5---4-4--------5-5---4----2-|  x2
A|-2-2-----2-5-5-----5-2-0-5-4-----2-2-2-2---5-5-5-5---4-4--------5-5---4----2-|
E|-0-0-----0-3-3-----3-----3-2-----0-0-0-0---3-3-3-3---2-2--------3-3---2----0-|

************************************

| /   slide up
| \   slide down
| h   hammer-on
| p   pull-off
| ~   vibrato
| +   harmonic
| x   Mute note
| b   Bend
| pb  Pre-bend
| br  Bend release
| pbr Pre-bend release
| brb Bend release bend

************************************
            
Submit corrections

comments powered by Disqus
↑ Back to top | Krezip Tabs for All Unsaid. Lyrics for acoustic guitar and electric guitar. 1 Tablatures and chords are parodies/interpretations of the original songs. You may use it for private study, scholarship, research or language learning purposes only