>
 >
World Beyond

World Beyond Guitar Tabs

Kreator - World Beyond chords, tabs, tablatures, lyrics

Guitar lessons | Add/correct | Request | Top 50 tabs Artists:  A B C D E F G H I J K L M N O P Q R S T U V W X Y Z 0-9

World Beyond Guitar Tabs – Kreator

CD, Sheet music, Poster

Do you like World Beyond? Share with your friends now
Tabs
KREATOR - WORLD BEYOND
(Coma Of Souls, 1990)

Key
= after note = vibrato
^ after note = heavy vibrato 
\ = slide down
/ = slide up
+ = tap
h = hammer
p = pull
n = natural harmonic
s = pinching harmonic (squeal)
* = tremolo pick
t = trill
b = bend
|-3-| = triplet

n number above the tab = play the first part then the first finishing part
			 play the first part a second time and then play the second finishing part
			 etc.

Riff 1

E ------------------------------------------------------------
B ------------------------------------------------------------
G -10\9------9----------------7--10\9------9------------5-----
D -10\9------9------5-----7-6-7--10\9------9------4-----5--5--
A -8 \7------7------6-----7-6-5--8 \7------7------5-----3--5--
E ------00-0---00-0---0-0-5-4---------00-0---00-0---0-0----3--

Riff 2

E -------------------------------------------------------------
B -------------------------------------------------------------
G -----------------3-----------------------------3-------5--7--
D -3-------3-------3-------5--2--3-------3-------3-------5--7--
A -3-------3-------1--11-1-5--2--3-------3-------1--11-1-3--5--
E -1--11-1-1--11-1---------3--0--1--11-1-1--11-1---------------

Riff 3

E -----------------------------------------------------------------------
B -----------------------------------------------------------------------
G -----------------------------------------------------------------------
D -2------------5--3----------3----------2------------5--3---------5--3--
A -2----------5----5-55-55-55-5-55-55-55-2----------5----5-55-55-5-5--3--
E -0-0-00-0-7----------------------------0-0-00-0-7----------------3--1--

Riff 4

E ----------------------------------------------
B ----------------------------------------------
G ------5--4--7----10--7--9----5--4--7----------
D -2----5--4--7----10--7--9----5--4--7----5--3--
A -2----3--2--5----8 --5--7----3--2--5----5--3--
E -0--------------------------------------3--1--

Riff 4A

E ----------------------------------------------
B ----------------------------------------------
G -2----5--4--7----10--7--9----5--4--7----5--3--
D -2----3--2--5----8 --5--7----3--2--5----5--3--
A -0--------------------------------------3--1--
E ----------------------------------------------

Riff 4B

E ---------------------------------------------------------------------------------------------------
B ---------------------------------------------------------------------------------------------------
G ---------------------------------------------------------------------------------------------------
D -------------------------------------------------------------------------------------------------2-
A -------------33-33-22-22-55-55-55-55-88-88-55-55-77-77-77-77-33-33-22-22-55-55-55-55-------------2-
E -00-00-00-00-------------------------------------------------------------------------33-33-22-22-0-

Riff 5

E -------------------------------------------------------------------
B -------------------------------------------------------------------
G -------------------------------------------------------------------
D -------------------------------8-5-----------------------------8-5-
A -------------------------7-5-5---------------------------7-5-5-----
E -0-0-0-0-0-0-0-0-0-0-0-0-----------0-0-0-0-0-0-0-0-0-0-0-----------

E -------------------------------------------------------------------
B -------------------------------------------------------------------
G -------------------------------------------------------------------
D -------------------------------8-5---------------------8-7-5-------
A -------------------------7-5-5---------------------7-5-------8-7-5-
E -0-0-0-0-0-0-0-0-0-0-0-0-----------0-0-0-0-0-0-0-0-----------------

Riff 5A

E -------------------------------------------------------------------
B -------------------------------------------------------------------
G -------------------------------7-4-----------------------------7-4-
D -------------------------5-------------------------------5---------
A ---------------------------8-8-----------------------------8-8-----
E -0-0-0-0-0-0-0-0-0-0-0-0-----------0-0-0-0-0-0-0-0-0-0-0-----------

E -------------------------------------------------------------------
B -------------------------------------------------------------------
G -------------------------------7-4---------------------7-5-4-------
D -------------------------5-4-4---------------------5-4-------7-5-4-
A -------------------------------------------------------------------
E -0-0-0-0-0-0-0-0-0-0-0-0-----------0-0-0-0-0-0-0-0-----------------

Order

Riff 1 x 4
Riff 2 x 1
Riff 3 x 4
Riff 4 x 1
Riff 5/5A x 1
Riff 3 x 4
Riff 4 x 1
Solo over Riff 4A x 2
Solo over Riff 1 x 2
Solo over Riff 2 x 1
Riff 4 x 1
Riff 4A x 1





Comments


Popular Kreator tabs & chords
Riot Of Violence Bass Tabs
Bomb Threat 1 Tabs
Cry War Tabs
Death To The World Tabs
Phobia 1 Tabs
Pleasure To Kill Tabs
Suicide Terrorist Intro Tabs
The Pestilence Tabs
Total Death Tabs
United In Hate Intro Tabs


Song lyrics



↑ Back to top | Tablatures and chords are parodies/interpretations of the original songs. You may use it for private study, scholarship, research or language learning purposes only
© 2014 AZChords.com Contact us | Privacy policy | DMCA | Add/correct tabs | Request tabs | Top 50 tabs