>
 >
Winter Martyrium

Winter Martyrium Bass Tabs

Kreator - Winter Martyrium chords, tabs, tablatures, lyrics

Guitar lessons | Add/correct | Request | Top 50 tabs Artists:  A B C D E F G H I J K L M N O P Q R S T U V W X Y Z 0-9

Winter Martyrium Bass Tabs – Kreator

CD, Sheet music, Poster

Do you like Winter Martyrium? Share with your friends now
Bass Tabs
G||------------------|------------------|------------------|------------------|
D||------------------|------------------|------------------|------------------|
A||------------------|------------------|------------------|------------------|
E||------------------|------------------|------------------|------------------|


                                                                           
----------1--0-------3--|--2----------0--2-------|----------1--0-------3--|
--0--0----------1-------|-----3----0----------3--|--0--0----------1-------|
------------------------|------------------------|------------------------|
------------------------|------------------------|------------------------|


                                                                           
--2----------0--2-------|----------1--0-------3--|--2----------0--2-------|
-----3----0----------3--|--0--0----------1-------|-----3----0----------3--|
------------------------|------------------------|------------------------|
------------------------|------------------------|------------------------|


                                                                           
----------1--0-------3--|--2----------0--2-------|----------1--0-------3--|
--0--0----------1-------|-----3----0----------3--|--0--0----------1-------|
------------------------|------------------------|------------------------|
------------------------|------------------------|------------------------|


                                                                           
--2----------0--2-------|----------1--0-------3--|--2----------0--2-------|
-----3----0----------3--|--0--0----------1-------|-----3----0----------3--|
------------------------|------------------------|------------------------|
------------------------|------------------------|------------------------|


                                                                           
----------1--0-------3--|--2----------0--2-------|----------1--0-------3--|
--0--0----------1-------|-----3----0----------3--|--0--0----------1-------|
------------------------|------------------------|------------------------|
------------------------|------------------------|------------------------|


                                                                
--2----------0--2-------|-------------------|------------------|
-----3----0----------3--|--0----------------|------------------|
------------------------|-------------------|------------------|
------------------------|-------------------|------------------|


                                                                            
------------------|------------------|------------------|------------------|
------------------|------------------|------------------|------------------|
------------------|------------------|------------------|------------------|
------------------|------------------|------------------|------------------|


                                                                     
------------------|----------1--0-------3--|--2----------0--2-------|
------------------|--0--0----------1-------|-----3----0----------3--|
------------------|------------------------|------------------------|
------------------|------------------------|------------------------|


                                                                           
----------1--0-------3--|--2----------0--2-------|----------1--0-------3--|
--0--0----------1-------|-----3----0----------3--|--0--0----------1-------|
------------------------|------------------------|------------------------|
------------------------|------------------------|------------------------|


                                                                           
--2----------0--2-------|----------1--0-------3--|--2----------0--2-------|
-----3----0----------3--|--0--0----------1-------|-----3----0----------3--|
------------------------|------------------------|------------------------|
------------------------|------------------------|------------------------|


                                                                             
-------------------|------------------|------------------|------------------|
--0----------------|------------------|------------------|------------------|
-------------------|------------------|------------------|------------------|
-------------------|------------------|------------------|------------------|


                                                                               
------------------|-------------------|------------------|--0-----------------|
------------------|---------------2---|------------------|------4-------------|
------------------|-------------------|------------------|--------------------|
------------------|-------------------|------------------|--------------------|


                                                             
-------------------|----------------0---|-------------------|
-------------2-----|--------------------|--4----------------|
-------------------|--------------------|-------------------|
-------------------|--------------------|-------------------|


                                                             
-------------------|-------------0-------|------------------|
----------2--------|------------------4--|------------------|
-------------------|---------------------|------------------|
-------------------|---------------------|------------------|


                                                                   
--------------------------------|------------------------0--------|
--------2--2--2--2--2--2--2--2--|--2--2--2--2--2--2--2-2------4-4-|
--------------------------------|---------------------------------|
--------------------------------|---------------------------------|


                                                                              
--------------------------------------|--------------------------------------|
--4--4--4--4--4--4--4--4--4--4--4--4--|--4--4--2--2--2--2--2--2--2--2--2--2--|
--------------------------------------|--------------------------------------|
--------------------------------------|--------------------------------------|


                                                                           
--------------------0--------------|--------------------------------------|
--2--2--2--2--2--2------4-4--4--4--|--4--4--4--4--4--4--4--4--4--4--4--4--|
-----------------------------------|--------------------------------------|
-----------------------------------|--------------------------------------|


                                                                           
--------------------------------------|-------------0---------------------|
--2--2--2--2--2--2--2--2--2--2--2--2--|--2--2--2--2-----4--4--4--4--4--4--|
--------------------------------------|-----------------------------------|
--------------------------------------|-----------------------------------|


                                                                              
--------------------------------------|--------------------------------------|
--4--4--4--4--4--4--4--4--4--4--2--2--|--2--2--2--2--2--2--2--2--2--2--2--2--|
--------------------------------------|--------------------------------------|
--------------------------------------|--------------------------------------|


                                                                
------0----------------|--------------------|------------------|
--2-2------0-----------|--4-----0-----2-----|------------------|
-----------------------|--------------------|------------------|
-----------------------|--------------------|------------------|


                                                                                
-------------------|-------7-----------|----------4---------|------------------|
--4----------------|-------------------|--------------2-----|------------------|
-------------------|-------------------|--------------------|------------------|
-------------------|-------------------|--------------------|------------------|


                                                            
-------------------|-------------------|-------------7-----|
--2----------------|-------4-----------|-------------------|
-------------------|-------------------|-------------------|
-------------------|-------------------|-------------------|


                                                                          
----------------4---|-------------------|--------------------------------|
--------------------|--2----------------|--------2--2--2--2--2--2--2--2--|
--------------------|-------------------|--------------------------------|
--------------------|-------------------|--------------------------------|


                                                                              
--------------------------------------|--------------------------------------|
--2--2--2--2--2--2--2--2--4--4--4--4--|--4--4--4--4--4--4--4--4--4--4--4--4--|
--------------------------------------|--------------------------------------|
--------------------------------------|--------------------------------------|


                                                                              
--------------------------------------|--------------------------------------|
--4--4--2--2--2--2--2--2--2--2--2--2--|--2--2--2--2--2--2--4--4--4--4--4--4--|
--------------------------------------|--------------------------------------|
--------------------------------------|--------------------------------------|


                                                                              
--------------------------------------|--------------------------------------|
--4--4--4--4--4--4--4--4--4--4--4--4--|--2--2--2--2--2--2--2--2--2--2--2--2--|
--------------------------------------|--------------------------------------|
--------------------------------------|--------------------------------------|


                                                                              
--------------------------------------|--------------------------------------|
--2--2--2--2--4--4--4--4--4--4--4--4--|--4--4--4--4--4--4--4--4--4--4--2--2--|
--------------------------------------|--------------------------------------|
--------------------------------------|--------------------------------------|


                                                               
--------------------------------------|------0----------------|
--2--2--2--2--2--2--2--2--2--2--2--2--|--2-2------0-----------|
--------------------------------------|-----------------------|
--------------------------------------|-----------------------|


                                                             
--------------------|--------------0-----|------------------|
--4-----0-----2-----|------------------4-|------------------|
--------------------|--------------------|------------------|
--------------------|--------------------|------------------|


                                                             
--------------------|-------------------|--------------7----|
----2---------------|---------4---------|-------------------|
--------------------|-------------------|-------------------|
--------------------|-------------------|-------------------|


                                                             
-----------------4-|--------------------|-------------------|
-------------------|----2---------------|---------2---------|
-------------------|--------------------|-------------------|
-------------------|--------------------|-------------------|


                                                                                
-------------------|------------------|---7---------------|------4-------------|
--------------4----|------------------|-------------------|----------2---------|
-------------------|------------------|-------------------|--------------------|
-------------------|------------------|-------------------|--------------------|


                                                                
--------------------4--|--------6--------10-----8--------------|
--------------2--2-----|---------------------------------------|
-----------------------|--7--7-----7--7------7-----7--7--7--7--|
-----------------------|---------------------------------------|


                                                                           
----0------------------------------|-----------------------------4--------|
--------4--4--4--4--4--4--4--4--4--|--4--4--4--4--4--4--4--2--2-----2--2--|
--7--------------------------------|--------------------------------------|
-----------------------------------|--------------------------------------|


                                                                            
--6--------10-----8-----------------0--|-----------------------------------|
---------------------------------------|----4-4-4--4--4--4--4--4--4--4--4--|
-----7--7------7-----7--7--7--7--7-----|-----------------------------------|
---------------------------------------|-----------------------------------|


                                                                            
-----------------------4--------6-----|-----10-----8-----------------0-----|
--4--4--4--4--4--2--2-----2--2-----2--|----------------------------------4-|
--------------------------------------|--7------7-----7--7--7--7--7--------|
--------------------------------------|------------------------------------|


                                                                               
--------------------------------------|-----------------4--------6--------10--|
--4--4--4--4--4--4--4--4--4--4--4--4--|--4--4--4--2--2-----2--2---------------|
--------------------------------------|-----------------------------7--7------|
--------------------------------------|---------------------------------------|


                                                                         
-----8----------------0--------|--------------------|-------------------|
--------------------------0----|---------4-----0----|---2---------------|
--7-----7--7--7--7--7----------|--------------------|-------------------|
-------------------------------|--------------------|-------------------|


                                                                 
-------0--------------|-----------2-------|--0------------------|
------------2----4----|-------------------|-------4---0---------|
----------------------|-------------------|---------------------|
----------------------|-------------------|---------------------|


                                                                  
---------------------|-------------------|-------------0---------|
---------4---0----2--|-----------------2-|--------4---------2----|
---------------------|-------------------|-----------------------|
---------------------|-------------------|-----------------------|


                                                                 
---------------0---|---------------------|-------2------0-------|
-------------------|--2----4-------------|-------------------4--|
-------------------|---------------------|----------------------|
-------------------|---------------------|----------------------|


                                                                
----2---------------|----------------------|-------------------|
----0---------------|----4----0----2-------|-----------2-------|
--------------------|----------------------|-------------------|
--------------------|----------------------|-------------------|


                                                       
-------0----4-----4-----4-|------5----5---2---4-----4-|
--4-----------2-2---2-2---|--2-2--------2---2---2-2---|
--------------------------|---------------------------|
--------------------------|---------------------------|


                                                        
------4-----7----7---5---4-|------4-----4-----5----5---|
--2-2---2-2----------------|--2-2---2-2---2-2--------2-|
-------------------7---7---|---------------------------|
---------------------------|---------------------------|


                                                                        
--2---4-----4-----4-----7-|----7---5-------------|-------------0-------|
----2---2-2---2-2---2-2---|----------------------|---------------------|
--------------------------|------7---7-7---------|-------------------7-|
--------------------------|----------------------|---------------------|


                                                                  
------------------2-|--------0--------------|--------------------|
----4---------------|-------------4----0----|---------------4----|
--------------------|-----------------------|--------------------|
--------------------|-----------------------|--------------------|


                                                                 
---------------------|-------------------0-|--------------------|
--0----2-------------|------2-------4------|----2---------------|
---------------------|---------------------|--------------------|
---------------------|---------------------|--------------------|


                                                                 
-----0----------------|------------2------|--0------------------|
---------2----4-------|-------------------|-------4---0---------|
----------------------|-------------------|---------------------|
----------------------|-------------------|---------------------|


                                                                   
---------------------|-------------------|-------------0----4-----|
----------4---0----2-|-----------------2-|--------4-----------2-2-|
---------------------|-------------------|------------------------|
---------------------|-------------------|------------------------|


                                                      
--4-----4-----5---5---2---|--4-----4-----4-----7---7-|
----2-2---2-2-------2---2-|----2-2---2-2---2-2-------|
--------------------------|--------------------------|
--------------------------|--------------------------|


                                                      
----5---4-----4-----4-----|--5---5---2---4-----4-----|
----------2-2---2-2---2-2-|--------2---2---2-2---2-2-|
--7---7-------------------|--------------------------|
--------------------------|--------------------------|


                                                      
--4-----7---7---5---4-----|--4-----4-----5---5---2---|
----2-2---------------2-2-|----2-2---2-2-------2---2-|
--------------7---7-------|--------------------------|
--------------------------|--------------------------|


                                                      
--4-----4-----4-----7---7-|----5---4-----4-----4-----|
----2-2---2-2---2-2-------|----------2-2---2-2---2-2-|
--------------------------|--7---7-------------------|
--------------------------|--------------------------|


                                                                       
--5---5---2---4-----4-----|--4-----7---7---5-------|------------------|
--------2---2---2-2---2-2-|----2-2-----------------|------------------|
--------------------------|--------------7---7-----|------------------|
--------------------------|------------------------|------------------|


                                                                            
------------------|------------------|------------------|------------------|
------------------|------------------|------------------|------------------|
------------------|------------------|------------------|------------------|
------------------|------------------|------------------|------------------|


                                                                         
---------------------------------|--------------------------------------|
------2--2--2--2--2--2--2--2--2--|--2--2--2--2--2--2--2--2--2--2--2--2--|
---------------------------------|--------------------------------------|
---------------------------------|--------------------------------------|


                                                           
-----------------------------------0--|-------------------|
--2--2--2--2--2--2--2--2--2--2--2-----|----------4--------|
--------------------------------------|-------------------|
--------------------------------------|-------------------|


                                                                
-------------------------------------|---------------0---------|
----2--2--2--2--2--2--2--2--2--2--2--|--2--2--2--2-2-----------|
-------------------------------------|-------------------------|
-------------------------------------|-------------------------|


                                                                    
----------------------------|-----------------------------------0--|
--4----------2--2--2--2--2--|--2--2--2--2--2--2--2--2--2--2--2-----|
----------------------------|--------------------------------------|
----------------------------|--------------------------------------|


                                                          
-------------------|-------------------------------------|
----------4--------|----2--2--2--2--2--2--2--2--2--2--2--|
-------------------|-------------------------------------|
-------------------|-------------------------------------|


                                                       
---------------0---------|-------------2--2--2--2--2--|
--2--2--2--2-2-----------|--4-------------------------|
-------------------------|----------------------------|
-------------------------|----------------------------|


                                                                              
--2--2--2--2--2--2--2--2--2--2--2--2--|--2--2--2--2--2--2--2--2--2--2--2--2--|
--------------------------------------|--------------------------------------|
--------------------------------------|--------------------------------------|
--------------------------------------|--------------------------------------|


                                                                              
--2--2--2-----------------------------|--------------------------------------|
-----------2--2--2--2--2--2--2--2--2--|--2--2--2--2--2--2--2--2--2--2--2--2--|
--------------------------------------|--------------------------------------|
--------------------------------------|--------------------------------------|


                                                                              
-----------------------------------2--|--2--2--2--2--2--2--2--2--2--2--2--2--|
--2--2--2--2--2--2--2--2--2--2--2-----|--------------------------------------|
--------------------------------------|--------------------------------------|
--------------------------------------|--------------------------------------|


                                                                              
--2--2--2--2--2--2--2--2--2--2--2--2--|--2--2--2--2--2--2--2-----------------|
--------------------------------------|-----------------------2--2--2--2--2--|
--------------------------------------|--------------------------------------|
--------------------------------------|--------------------------------------|


                                                                              
--------------------------------------|--------------------------------------|
--2--2--2--2--2--2--2--2--2--2--2--2--|--2--2--2--2--2--2--2--2--2--2--2--2--|
--------------------------------------|--------------------------------------|
--------------------------------------|--------------------------------------|


                                                                              
-----------2--2--2--2--2--2--2--2--2--|--2--2--2--2--2--2--2-----------------|
--2--2--2-----------------------------|-----------------------2--2--2--2--2--|
--------------------------------------|--------------------------------------|
--------------------------------------|--------------------------------------|


                                                                           
-----------------------------0-----|--------------------------------------|
--2--2--2--2--2--2--2--2--2------4-|--4--4--4--4--4--4--4--4--4--4--4--4--|
-----------------------------------|--------------------------------------|
-----------------------------------|--------------------------------------|


                                                                           
--------------------------------------|----------------------0------------|
--4--4--4--2--2--2--2--2--2--2--2--2--|--2--2--2--2--2--2--2-----4--4--4--|
--------------------------------------|-----------------------------------|
--------------------------------------|-----------------------------------|


                                                                              
--------------------------------------|--------------------------------------|
--4--4--4--4--4--4--4--4--4--4--4--4--|--4--2--2--2--2--2--2--2--2--2--2--2--|
--------------------------------------|--------------------------------------|
--------------------------------------|--------------------------------------|


                                                                         
---------------0-----------------|--------------------------------------|
--2--2--2--2-2------4-4-4--4--4--|--4--4--4--4--4--4--4--4--4--4--4--2--|
---------------------------------|--------------------------------------|
---------------------------------|--------------------------------------|


                                                                 
--------------------------------------|-----------0-------------|
--2--2--2--2--2--2--2--2--2--2--2--2--|--2--2--2------0---------|
--------------------------------------|-------------------------|
--------------------------------------|-------------------------|


                                                             
---------------------|------------------|-------------------|
----4-----0-----2----|------------------|---4---------------|
---------------------|------------------|-------------------|
---------------------|------------------|-------------------|


                                                             
---------7---------|------------4--------|------------------|
-------------------|----------------2----|------------------|
-------------------|---------------------|------------------|
-------------------|---------------------|------------------|


                                                              
--------------------|-------5------------|-------------------|
---2----------2-----|--------------------|-----2-------------|
--------------------|--------------------|-------------------|
--------------------|--------------------|-------------------|


                                                                            
------------------|------------------|------------------|------------------|
------------------|------------------|------------------|------------------|
------------------|------------------|------------------|------------------|
------------------|------------------|------------------|------------------|


                         
-------------------|---||
-------------------|---||
-------------------|---||
-------------------|---||





Comments


Popular Kreator tabs & chords
Endorama Bass Tabs
Riot Of Violence Bass Tabs
Agents Of Brutality Tabs
Betrayer Tabs
Blind Faith Tabs
Bringer Of Torture Tabs
Coma Of Souls Tabs
Reflection Tabs
Stronger Than Before Tabs
Toxic Trace Tabs


Song lyrics



↑ Back to top | Tablatures and chords are parodies/interpretations of the original songs. You may use it for private study, scholarship, research or language learning purposes only
© 2014 AZChords.com Contact us | Privacy policy | DMCA | Add/correct tabs | Request tabs | Top 50 tabs