>
 >
When The Sun Burns Red

When The Sun Burns Red Guitar Tabs

Kreator - When The Sun Burns Red chords, tabs, tablatures, lyrics

Guitar lessons | Add/correct | Request | Top 50 tabs Artists:  A B C D E F G H I J K L M N O P Q R S T U V W X Y Z 0-9

When The Sun Burns Red Guitar Tabs – Kreator

CD, Sheet music, Poster

Do you like When The Sun Burns Red? Share with your friends now
Tabs
KREATOR - WHEN THE SUN BURNS RED
(Coma Of Souls, 1990)

Key
= after note = vibrato
^ after note = heavy vibrato 
\ = slide down
/ = slide up
+ = tap
h = hammer
p = pull
n = natural harmonic
s = pinching harmonic (squeal)
* = tremolo pick
t = trill
b = bend
|-3-| = triplet

n number above the tab = play the first part then the first finishing part
			 play the first part a second time and then play the second finishing part
			 etc.

Acoustic intro

E --------------------------------------------------------------------------------------------------------------------
B --------------------------------------------------------------------------------------------------------------------
G ----8-------------------------------------8-------------------------------------10------------------6---------------
D ----8------------------7------------------8------------------7------------------10------------------6---------------
A -xx-6------------------7---------------xx-6------------------7---------------xx-8 ---------------xx-4---------------
E --------------------xx-5----------------------------------xx-5------------------------------------------------------

E -------------------------------------------------------------------------------------------------
B -------------------------------------------------------------------------------------------------
G ----10-----------------6-----------------------------6---------------------6----------6----------
D ----10-----------------6------------------6----------6----------6----------6----------6--------8-
A -xx-8 --------------xx-4------------------6-------xx-4----------6-------xx-4-------xx-4--------8-
E ---------------------------------------xx-4------------------xx-4------------------------------6-

Clean intro

E --------------6--------------6--------------------------------------------6--------------6--------------------
B -----------7----7---------7----7------------5--------------5-----------7----7---------7----7------------5-----
G --------8---------8-----8--------8-------5----5---------5----5-------8--------8-----8--------8-------5----5---
D ------8---------------8----------------7--------7-----7--------7---8--------------8----------------7--------7-
A -xx-6---------------6----------------7--------------7------------6--------------6----------------7------------
E -----------------------------------5--------------5--------------------------------------------5--------------

E ---------------------------8-----------------8---------------4--------------4----------------8-----------------8------
B ----------5-------------9----9------------9----9----------5----5---------5----5-----------9----9------------9----9----
G -------5----5--------10--------10------10--------10-----6--------6-----6--------6------10--------10------10--------10-
D -----7--------7---10----------------10----------------6--------------6--------------10----------------10--------------
A ---7------------8-----------------8-----------------4--------------4--------------8-----------------8-----------------
E -5--------------------------------------------------------------------------------------------------------------------

E ----------4-------------4------------------------------4-----------------------------4--------------4-----6-
B -------5----5---------5----5------------4-----------5----5------------4-----------5----5---------5----5---6-
G -----6--------6-----6--------6-------4----4-------6--------6-------4----4-------6--------6-----6--------6-6-
D ---6--------------6----------------6--------6---6----------------6--------6---6--------------6------------8-
A -4--------------4----------------6------------4----------------6------------4--------------4--------------8-
E -------------------------------4-----------------------------4--------------------------------------------6-

Riff 1

E -------------------------------------------------------
B -------------------------------------------------------
G -------------------------------------------------------
D -----------------------------------2*--4*--5*--4*--0*--
A -7-------6------6---5--2*--3*--5*----------------------
E ----00-0----0-0---0------------------------------------

Riff 1A

E -------------------------------------------------------
B ----------------3-2------------------------------------
G -------------------------------------------------------
D -6-------5----------4--------------2*--4*--5*--4*--0*--
A ----------------------2*--3*--5*-----------------------
E ----00-0----0-0----------------------------------------

Riff 1B

E ------------------------------------------------------
B ------------------------------------------------------
G ----------------4-------------------------------------
D ----------------------------------2*--4*--5*--4*--0*--
A -7-------6---------5--2*--3*--5*----------------------
E ----00-0----0-0---------------------------------------

Riff 1C

E ------------------------------------------------------
B ------------------------------------------------------
G ----------------4-----------------2*--4*--5*--4*--0*--
D ----------------------2*--3*--5*----------------------
A -7-------6---------5----------------------------------
E ----00-0----0-0---------------------------------------

Riff 1D

E -----------------------------------------------------------------------------
B -----------------------------------------------------------------------------
G -----------------------------------------------------------------------------
D -----------------------------------2*--4*--5*--4*--0*------------------------
A -7-------6------6---5--2*--3*--5*----------------------7-------6------6---5--
E ----00-0----0-0---0---------------------------------------00-0----0-0---0----

Riff 1E

E -----------------------------------------------------------------------------
B ----------------3-2---------------------------------------------------3-2----
G -----------------------------------------------------------------------------
D -6-------5----------4--------------2*--4*--5*--4*--0*--6-------5----------4--
A -----------------------2*--3*--5*--------------------------------------------
E ----00-0----0-0-------------------------------------------00-0----0-0--------

Riff 2

E ---------------------------------------------------------------------
B ---------------------------------------------------------------------
G ---------------------------------------------------------------------
D -------------------------------------------------2*--4*--5*--4*--0*--
A -7-------6--------------------6---7--2*--3*--5*----------------------
E ----00-0----00-00-00-00-00-00---0-5----------------------------------

Riff 2A

E ---------------------------------------------------------------------
B ---------------------------------------------------------------------
G ------------------------------7--------------------------------------
D -6-------5--------------------7---7--------------2*--4*--5*--4*--0*--
A -7-------6--------------------5---7--2*--3*--5*----------------------
E ----00-0----00-00-00-00-00-00---0-5----------------------------------

Riff 3

E -----------------------------------------------------------------
B -----------------------------------------------------------------
G -----------------------------------------------------------------
D -------------------------------------------------------------1-2-
A -2-----1-----2---4-----2-----1---4-----5-----4---2-----1-----1-2-
E ---0-0---0-0---0---0-0---0-0---0---2-2---2-2---2---0-0---0-0-----

Riff 4

E -------------------------------------------------------------------------------------------------
B -------------------------------------------------------------------------------------------------
G -------------------------------------------------------------------------------------------------
D -5-----5-----5---6-----5-----3---5-----3-----5---6---5---3---0---5-----5-----5---6-----5-----3---
A ---3-3---3-3---3---3-3---3-3---3---0-0---0-0---0---0---0---0---0---3-3---3-3---3---3-3---3-3---3-
E -------------------------------------------------------------------------------------------------

E -------------------------------
B -------------------------------
G -------------------------5--7--
D -7-----7-----7---8-------5--7--
A ---5-5---5-5---5---5-5-5-3--5--
E -------------------------------

Riff 5

E ----------------------------------------------------------------------------------------------------------
B ----------------------------------------------------------------------------------------------------------
G -9---------------------------4--------------5--5--7--9---------------------------4------8-----------5--7--
D -9------6--7-----------------4------2--3----5--5--7--9------6--7-----------------4------8--7--------5--7--
A -7------6--7---------4-------2------2--3----3--3--5--7------6--7---------4-------2--0-0-6--7----0-0-3--5--
E ----0-0-4--5---0-2-3---3-2-0----0-0-0--1----------------0-0-4--5---0-2-3---3-2-0-----------5--------------

Riff 6

E --------------------------------------------------------------------------------------------------------
B --------------------------------------------------------------------------------------------------------
G ------------------------------------------------------------7-------------------------------------------
D -8-----------6---8-----------6---8-----------6---8----------7--6--9-------------7----9-------------7----
A -8-9-8-6-8-9---9-8-9-8-6-8-9---9-8-9-8-6-8-9---9-8-9-8-6-5--5--6--9-10-9-7-9-10---10-9-10-9-7-9-10---10-
E -6---------------6---------------6---------------6-------------4--7------------------7------------------

E -----------------------------------
B -----------------------------------
G -----------------------------7-----
D -9-------------7----9--------7--6--
A -9-10-9-7-9-10---10-9-10-9-7-5--6--
E -7------------------7-----------4--

Riff 6A

E -----------------------------------------------------------------------------------------------------
B -----------------------------------------------------------------------------------------------------
G ---------------------------------------------------------7-------------------------------------------
D -8-----------6---8-----------6---8-----------6---8-------7--6--9-------------7----9-------------7----
A -8-9-8-6-8-9---9-8-9-8-6-8-9---9-8-9-8-6-8-9---9-8-9-8-6-5--6--9-10-9-7-9-10---10-9-10-9-7-9-10---10-
E -6---------------6---------------6---------------6----------4--7------------------7------------------

E --------------------------------------
B --------------------------------------
G -----------------------------8--------
D -9-------------7----9--------8--7--9--
A -9-10-9-7-9-10---10-9-10-9-7-6--7--9--
E -7------------------7-----------5--7--
			       |--3--|

Riff 6B

E -----------------------------------------------------------------------------------------------------
B -----------------------------------------------------------------------------------------------------
G -------------6---------------6---------------6-----------7-------------------7------------------7----
D -8-9-8-6-8-9---9-8-9-8-6-8-9---9-8-9-8-6-8-9---9-8-9-8-6-7--6--9-10-9-7-9-10---10-9-10-9-7-9-10---10-
A -8---------------8---------------8---------------8-------5--6--9------------------9------------------
E -6---------------6---------------6---------------6----------4--7------------------7------------------

E --------------------------------------
B --------------------------------------
G ---------------7-------------8--------
D -9-10-9-7-9-10---10-9-10-9-7-8--7--9--
A -9------------------9--------5--7--9--
E -7------------------7-----------5--7--
			       |--3--|

Riff 6C

E -----------------------------------------------------------------------------------------------------
B -----------------------------------------------------------------------------------------------------
G ---------------------------------------------------------7-------------------------------------------
D -8-----------6---8-----------6---8-----------6---8-------7--6--9-------------7----9-------------7----
A -8-9-8-6-8-9---9-8-9-8-6-8-9---9-8-9-8-6-8-9---9-8-9-8-6-5--6--9-10-9-7-9-10---10-9-10-9-7-9-10---10-
E -6---------------6---------------6---------------6----------4--7------------------7------------------

E -----------------------------------
B -----------------------------------
G -----------------------------------
D -9-------------7----9--------6--7--
A -9-10-9-7-9-10---10-9-10-9-7-6--7--
E -7------------------7--------4--5--
Riff 7

E -----------------------------------------------------------
B -----------------------------------------------------------
G -9------------9-7---7-5---5-7-9------------9-7---7-5---5-7-
D -9------------9-7---7-5---5-7-9------------9-7---7-5---5-7-
A -7------------7-5---5-3---3-5-7------------7-5---5-3---3-5-
E -7--0-00-0-00-7-5---5-3---3-5-7--0-00-0-00-7-5---5-3---3-5-

Riff 7A

E -----------------------------------------------------------------
B -----------------------------------------------------------------
G -4----4----4----4-5---5-7---7-10-4----4----4----4-5---5-7---7-10-
D -4----4----4----4-5---5-7---7-10-4----4----4----4-5---5-7---7-10-
A -2-22-2-22-2-22-2-3---3-5---5-8 -2-22-2-22-2-22-2-3---3-5---5-8 -
E -----------------------------------------------------------------

Riff 7B

E -------------------------------------------------------------------------
B -------------------------------------------------------------------------
G -5----5----5----5-5-----5-5-----5----------------------------------------
D -5----5----5----5-5-----5-5-----5----4----4----4----4-4-----4-4-----4----
A -3-33-3-33-3-33-3-3--33-3-3--33-3-33-4----4----4----4-4-----4-4-----4----
E -------------------------------------2-22-2-22-2-22-2-2--22-2-2--22-2-22-

E -----------------------------------------------------------------------------
B -----------------------------------------------------------------------------
G -5----5----5----5-5-----5-5-----5----3----3----3----3------------------------
D -5----5----5----5-5-----5-5-----5----3----3----3----3----3----3----3----3----
A -3-33-3-33-3-33-3-3--33-3-3--33-3-33-1-11-1-11-1-11-1-11-3----3----3----3----
E ---------------------------------------------------------1-11-1-11-1-11-1-11-

Fill 1

E --------------------
B --------------------
G -7------------------
D -7--------5---------
A -5--------5---------
E ----------3-------0-

Riff 8

E -------------------------------------------------------------
B -------------------------------------------------------------
G -------------4-----------------------4-----------------------
D -------------4-----------------------4-----4-----------------
A -------------2-----------------------2-----4-----------------
E -4-0-0-4-0-0-----0-0-0-0-0-0-0-4-0-0---0-0-2---2-2-2-2-2-2-0-

Order

Solo over Acoustic intro/Clean intro x 1
Riff 1/1A x 1
Riff 1 x 1
Riff 1/1B x 1
Riff 1/1C x 1
Riff 2 x 4
Riff 3 x 4
Riff 4 x 1
Riff 5 x 2
Riff 2 x 2
Riff 3 x 4
Riff 4 x 1
Riff 5 x 2
Riff 6 x 1
Riff 6A/6B x 1
Solo over Riff 7 x 4
Solo over Riff 7A x 4
Solo over Riff 7B x 1
Riff 7 x 4
Fill 1 x 1
Riff 8 x 6
Riff 6 x 1
Riff 6C x 1
Riff 2/2A x 1
Riff 2 x 1
Riff 1D/1E x 1





Comments


Popular Kreator tabs & chords
Betrayer 1 Tabs
Bone Breaker Tabs
Celestial Deliverance Tabs
Extreme Aggression 1 Tabs
Reflection Tabs
Riot Of Violence Tabs
Rippin Corpse Tabs
Stronger Than Before Tabs
Terror Zone Tabs
Terror Zone 1 Tabs


Song lyrics



↑ Back to top | Tablatures and chords are parodies/interpretations of the original songs. You may use it for private study, scholarship, research or language learning purposes only
© 2014 AZChords.com Contact us | Privacy policy | DMCA | Add/correct tabs | Request tabs | Top 50 tabs