» » »

Violent Revolution Tabs (ver.2)

Artists:  A B C D E F G H I J K L M N O P Q R S T U V W X Y Z # 

Violent Revolution Tabs (ver.2)

Kreator
Rating:
0/5 (0 votes)

Hard to play? Try these video lessons and learn fast.
                GRUPO:KREATOR
CANCION:VIOLENT REVOLUTION

ESTA 100% SAKAA X MI
1)-----------------------------------------------
2)-----------------------------------------------
3)---------7--5-4~~~------------------------
4)-----5---------------------------4-----------
5)--------------------------5--7---2-----------
6)--------------------------3--5----------------

1)-----------------------------------------------
2)-----------------------------------------------
3)---------7--5-4~~~------------------------
4)-----5--------------------------4-----------
5)--------------------------7--5--2-----------
6)--------------------------5--3----------------

1)------------------------------------------------------------
2)------------------------------------------------------------
3)---------7--5-4~~~-------------------------------------
4)-----5---------------------------------------4-------
5)---------------------------5-------------5-3-2-------
6)---------------------------3-1-1-1-1-1-1-3-1-----------

ESAS 3 PARTES  2 VECES...

1)-----------------------------------------------
2)-----------------------------------------------
3)---------7--5-4~~~------------------------
4)-----5--------------------------------4-
5)--------------------------2-2-2-2-5-7-2--
6)--------------------------0-0-0-0-3-5------

OTRO DIA PONGO EL RESTO,VIVA SHILE SHUSHETUMARE!!!!
            
Hard to play? Try these video lessons and learn fast. | Correct




comments powered by Disqus
↑ Back to top | Tablatures and chords are parodies/interpretations of the original songs. You may use it for private study, scholarship, research or language learning purposes only