>
 >
Under The Guillotine

Under The Guillotine Bass Tabs

Kreator - Under The Guillotine chords, tabs, tablatures, lyrics

Guitar lessons | Add/correct | Request | Top 50 tabs Artists:  A B C D E F G H I J K L M N O P Q R S T U V W X Y Z 0-9

Under The Guillotine Bass Tabs – Kreator

CD, Sheet music, Poster

Do you like Under The Guillotine? Share with your friends now
Bass TabsTabs
drop d

G||------------------|------------------|------------------|------------------|
D||------------------|------------------|------------------|------------------|
A||------------------|------------------|------------------|------------------|
D||------------------|------------------|------------------|------------------|


                                                                               
----------------------|----------------------|--------------------------------|
------3----2----3--3--|------3----2----3--3--|----------3-------2-------3--3--|
----------------------|----------------------|--0-0-0-0---0-0-0---0-0-0-------|
----------------------|----------------------|--------------------------------|


                                                                  
--------------------------------|--------------------------------|
----------3-------2-------3--3--|----------3-------2-------3--3--|
--0-0-0-0---0-0-0---0-0-0-------|--0-0-0-0---0-0-0---0-0-0-------|
--------------------------------|--------------------------------|


                                                                  
--------------------------------|--------------------------------|
----------3-------2-------3--3--|----------3-------2-------3--3--|
--0-0-0-0---0-0-0---0-0-0-------|--0-0-0-0---0-0-0---0-0-0-------|
--------------------------------|--------------------------------|


                                                                  
--------------------------------|--------------------------------|
----------3-------2-------3--3--|----------3-------2-------3--3--|
--0-0-0-0---0-0-0---0-0-0-------|--0-0-0-0---0-0-0---0-0-0-------|
--------------------------------|--------------------------------|


                                                                  
--------------------------------|--------------------------------|
----------3-------2-------3--3--|----------3-------2-------3--3--|
--0-0-0-0---0-0-0---0-0-0-------|--0-0-0-0---0-0-0---0-0-0-------|
--------------------------------|--------------------------------|


                                                                  
--------------------------------|--------------------------------|
----------3-------2-------3--3--|----------3-------2-------3--3--|
--0-0-0-0---0-0-0---0-0-0-------|--0-0-0-0---0-0-0---0-0-0-------|
--------------------------------|--------------------------------|


                                                                  
--------------------------------|--------------------------------|
----------3-------2-------3--3--|--0-0-0-0-0-0-0-0-0-0-0-0-1--1--|
--0-0-0-0---0-0-0---0-0-0-------|--------------------------------|
--------------------------------|--------------------------------|


                                                                  
--------------------------------|--------------------------------|
--0-0-0-0-0-0-0-0-0-0-0-0-3--3--|--0-0-0-0-0-0-0-0-0-0-0-0-1--1--|
--------------------------------|--------------------------------|
--------------------------------|--------------------------------|


                                                                  
--------------------------------|--------------------------------|
--0-0-0-0-0-0-0-0-0-0-0-0-3--3--|----------3-------2-------3--3--|
--------------------------------|--0-0-0-0---0-0-0---0-0-0-------|
--------------------------------|--------------------------------|


                                                                  
--------------------------------|--------------------------------|
----------3-------2-------3--3--|----------3-------2-------3--3--|
--0-0-0-0---0-0-0---0-0-0-------|--0-0-0-0---0-0-0---0-0-0-------|
--------------------------------|--------------------------------|


                                                                    
--------------------------------|--0-0-0-0-0-0-0-0-2-2-2-2-3-3-3-3-|
----------3-------2-------3--3--|----------------------------------|
--0-0-0-0---0-0-0---0-0-0-------|----------------------------------|
--------------------------------|----------------------------------|


                                                                  
--------------------------------|--------------------------------|
----------3-------2-------3--3--|----------3-------2-------3--3--|
--0-0-0-0---0-0-0---0-0-0-------|--0-0-0-0---0-0-0---0-0-0-------|
--------------------------------|--------------------------------|


                                                                    
--0-0-0-0-0-0-0-0-2-2-2-2-3-3-3-3-|--------------------------------|
----------------------------------|----------3-------2-------3--3--|
----------------------------------|--0-0-0-0---0-0-0---0-0-0-------|
----------------------------------|--------------------------------|


                                                                  
--------------------------------|--------------------------------|
----------3-------2-------3--3--|----------3-------2-------3--3--|
--0-0-0-0---0-0-0---0-0-0-------|--0-0-0-0---0-0-0---0-0-0-------|
--------------------------------|--------------------------------|


                                                                  
--------------------------------|--------------------------------|
----------3-------2-------3--3--|----------3-------2-------3--3--|
--0-0-0-0---0-0-0---0-0-0-------|--0-0-0-0---0-0-0---0-0-0-------|
--------------------------------|--------------------------------|


                                                                  
--------------------------------|--------------------------------|
----------3-------2-------3--3--|----------3-------2-------3--3--|
--0-0-0-0---0-0-0---0-0-0-------|--0-0-0-0---0-0-0---0-0-0-------|
--------------------------------|--------------------------------|


                                                                  
--------------------------------|--------------------------------|
----------3-------2-------3--3--|----------3-------2-------3--3--|
--0-0-0-0---0-0-0---0-0-0-------|--0-0-0-0---0-0-0---0-0-0-------|
--------------------------------|--------------------------------|


                                                                  
--------------------------------|--------------------------------|
----------3-------2-------3--3--|--0-0-0-0-0-0-0-0-0-0-0-0-1--1--|
--0-0-0-0---0-0-0---0-0-0-------|--------------------------------|
--------------------------------|--------------------------------|


                                                                  
--------------------------------|--------------------------------|
--0-0-0-0-0-0-0-0-0-0-0-0-3--3--|--0-0-0-0-0-0-0-0-0-0-0-0-1--1--|
--------------------------------|--------------------------------|
--------------------------------|--------------------------------|


                                                                  
--------------------------------|--------------------------------|
--0-0-0-0-0-0-0-0-0-0-0-0-3--3--|----------3-------2-------3--3--|
--------------------------------|--0-0-0-0---0-0-0---0-0-0-------|
--------------------------------|--------------------------------|


                                                                  
--------------------------------|--------------------------------|
----------3-------2-------3--3--|----------3-------2-------3--3--|
--0-0-0-0---0-0-0---0-0-0-------|--0-0-0-0---0-0-0---0-0-0-------|
--------------------------------|--------------------------------|


                                                                    
--------------------------------|--0-0-0-0-0-0-0-0-2-2-2-2-3-3-3-3-|
----------3-------2-------3--3--|----------------------------------|
--0-0-0-0---0-0-0---0-0-0-------|----------------------------------|
--------------------------------|----------------------------------|


                                                                  
--------------------------------|--------------------------------|
----------3-------2-------3--3--|----------3-------2-------3--3--|
--0-0-0-0---0-0-0---0-0-0-------|--0-0-0-0---0-0-0---0-0-0-------|
--------------------------------|--------------------------------|


                                                                    
--0-0-0-0-0-0-0-0-2-2-2-2-3-3-3-3-|--------------------------------|
----------------------------------|----------3-------2-------3--3--|
----------------------------------|--0-0-0-0---0-0-0---0-0-0-------|
----------------------------------|--------------------------------|


                                                                  
--------------------------------|--------------------------------|
----------3-------2-------3--3--|----------3-------2-------3--3--|
--0-0-0-0---0-0-0---0-0-0-------|--0-0-0-0---0-0-0---0-0-0-------|
--------------------------------|--------------------------------|


                                                                         
--------------------------------|-------------------|-------------------|
----------3-------2-------3--3--|-------------------|-------------------|
--0-0-0-0---0-0-0---0-0-0-------|--0-0--------------|----------0-0------|
--------------------------------|-------------------|-------------------|


                                                                              
------------------|-------------------|-------------------|------------------|
------------------|-------------------|-------------------|------------------|
------------------|--0-0--------------|----------0-0------|------------------|
------------------|-------------------|-------------------|------------------|


                                                                 
---------------------|---------------------|--------------------|
---------------------|---------------------|--------------------|
--0------0------0----|----0------0------0--|------0------0------|
---------------------|---------------------|--------------------|


                                                                 
---------------------|---------------------|--------------------|
---------------------|---------------------|--------------------|
--0------0------0----|----0------0------0--|------0------0------|
---------------------|---------------------|--------------------|


                                                                  
--------------------------------|--------------------------------|
--------------------------------|-----0-0-0-0-0-0-0-0-0-0-0-0-3--|
--2-2-2-2-2-2-2-2-2-2-2-2-3--2--|--0-----------------------------|
--------------------------------|--------------------------------|


                                                                 
--------------------------------|-------------------------------|
--2-----------------------------|-----------0-0-0-0-0-0-0-0-0-0-|
-----3--2-2-2-2-2-2-2-2-2-2-2-2-|--3--2--0----------------------|
--------------------------------|-------------------------------|


                                                                
-------------------------------|-------------------------------|
--0-0-3--2---------------------|-------------------0-0-0-0-0-0-|
------------3--2-2-2-2-2-2-2-2-|--2-2-2-2-3--2--0--------------|
-------------------------------|-------------------------------|


                                                                
-------------------------------|-------------------------------|
--0-0-0-0-0-0-3--2-------------|---------------------------0-0-|
--------------------3--2-2-2-2-|--2-2-2-2-2-2-2-2-3--2--0------|
-------------------------------|-------------------------------|


                                                                   
-------------------------------|----------------------------------|
--0-0-0-0-0-0-0-0-0-0-3--2-----|----------------------------------|
----------------------------3--|--0-0-0-0-0-0-0-0-----------------|
-------------------------------|------------------3-3-3-3-3-3-3-3-|


                                                                
----------------------------|----------------------------------|
----------------------------|----------------------------------|
------------------3----2----|--0-0-0-0-0-0-0-0-----------------|
--5-5-5-5-5-5-5-5-----------|------------------3-3-3-3-3-3-3-3-|


                                                                
----------------------------|----------------------------------|
----------------------------|----------------------------------|
------------------3----2----|--0-0-0-0-0-0-0-0-----------------|
--5-5-5-5-5-5-5-5-----------|------------------3-3-3-3-3-3-3-3-|


                                                                
----------------------------|----------------------------------|
----------------------------|----------------------------------|
------------------3----2----|--0-0-0-0-0-0-0-0-----------------|
--5-5-5-5-5-5-5-5-----------|------------------3-3-3-3-3-3-3-3-|


                                                                      
----------------------------|--------------------|-------------------|
----------------------------|--------------------|-------------------|
------------------3----2----|--------------------|-------------------|
--5-5-5-5-5-5-5-5-----------|--2------------2----|----------2--------|


                                                                
------------------3-2-|--------------------|-------------------|
--------------3-2-----|--------------------|-------------------|
----------------------|--------------------|-------------------|
------2-2-2-2---------|--2------------2----|----------2--------|


                                                                           
------------------3-2-|----------0--------------|-----2-1-----------------|
--------------3-2-----|-------------4-----------|---------------------3-2-|
----------------------|-------------------------|-------------------------|
------2-2-2-2---------|--2-2-2-2----------2-2-2-|---2---------2-2-2-2-----|


                                                                           
------------------3-2-|----------0--------------|-----2-1-----------------|
--------------3-2-----|-------------4-----------|---------------------3-2-|
----------------------|-------------------------|-------------------------|
------2-2-2-2---------|--2-2-2-2----------2-2-2-|---2---------2-2-2-2-----|


                                                                           
------------------3-2-|----------0--------------|-----2-1-----------------|
--------------3-2-----|-------------4-----------|---------------------3-2-|
----------------------|-------------------------|-------------------------|
------2-2-2-2---------|--2-2-2-2----------2-2-2-|---2---------2-2-2-2-----|


                                                                           
------------------3-2-|----------0--------------|-----2-1-----------------|
--------------3-2-----|-------------4-----------|---------------------3-2-|
----------------------|-------------------------|-------------------------|
------2-2-2-2---------|--2-2-2-2----------2-2-2-|---2---------2-2-2-2-----|


                                                                     
------------------3-2-|--8-7-----5-3-2-3------|---------------------|
--------------3-2-----|------8-7---------2----|-----------------2---|
----------------------|-----------------------|------0----2---------|
------2-2-2-2---------|-----------------------|---------------------|


                                                               
--------------------|-------------------|---------------------|
-----0--------------|----------2--------|-------------2-----0-|
-----------3--------|-------------------|--0----2-------------|
--------------------|-------------------|---------------------|


                                                               
------0------------|----------------------|-------------------|
-------------------|------2---------------|-------2-----0-----|
-------------------|---------------0----2-|-------------------|
-------------------|----------------------|-------------------|


                                                                
-------------------|----------------------|---------------0----|
-------------------|--2-------------------|---2-----0----------|
--3----------------|-----------0----2-----|--------------------|
-------------------|----------------------|--------------------|


                                                               
-------------------|---------------------|--------------------|
--------------2----|-----------------2---|-----0--------------|
-------------------|------0----2---------|-----------3--------|
-------------------|---------------------|--------------------|


                                                              
-------------------|---------------------|------0------------|
----------2--------|-------------2-----0-|-------------------|
-------------------|--0----2-------------|-------------------|
-------------------|---------------------|-------------------|


                                                  
---------------------|---------------------------|
---------------------|-------------------3-------|
---------------------|-----2-----0-0-0-0---0-0-0-|
------5-----4-----3--|---------------------------|


                                                                  
--------------------------------|--------------------------------|
--2-------3--3----------3-------|--2-------3--3----------3-------|
----0-0-0-------0-0-0-0---0-0-0-|----0-0-0-------0-0-0-0---0-0-0-|
--------------------------------|--------------------------------|


                                                                  
--------------------------------|--------------------------------|
--2-------3--3----------3-------|--2-------3--3----------3-------|
----0-0-0-------0-0-0-0---0-0-0-|----0-0-0-------0-0-0-0---0-0-0-|
--------------------------------|--------------------------------|


                                                                  
--------------------------------|--------------------------------|
--2-------3--3----------3-------|--2-------3--3----------3-------|
----0-0-0-------0-0-0-0---0-0-0-|----0-0-0-------0-0-0-0---0-0-0-|
--------------------------------|--------------------------------|


                                                                  
--------------------------------|--------------------------------|
--2-------3--3----------3-------|--2-------3--3--0-0-0-0-0-0-0-0-|
----0-0-0-------0-0-0-0---0-0-0-|----0-0-0-----------------------|
--------------------------------|--------------------------------|


                                                                  
--------------------------------|--------------------------------|
--0-0-0-0-1--1--0-0-0-0-0-0-0-0-|--0-0-0-0-3--3--0-0-0-0-0-0-0-0-|
--------------------------------|--------------------------------|
--------------------------------|--------------------------------|


                                                                  
--------------------------------|--------------------------------|
--0-0-0-0-1--1--0-0-0-0-0-0-0-0-|--0-0-0-0-3--3----------3-------|
--------------------------------|----------------0-0-0-0---0-0-0-|
--------------------------------|--------------------------------|


                                                                  
--------------------------------|--------------------------------|
--2-------3--3----------3-------|--2-------3--3----------3-------|
----0-0-0-------0-0-0-0---0-0-0-|----0-0-0-------0-0-0-0---0-0-0-|
--------------------------------|--------------------------------|


                                                                  
--------------------------------|----------------0-0-0-0-0-0-0-0-|
--2-------3--3----------3-------|--2-------3--3------------------|
----0-0-0-------0-0-0-0---0-0-0-|----0-0-0-----------------------|
--------------------------------|--------------------------------|


                                                                    
--2-2-2-2-3-3-3-3-----------------|--------------------------------|
--------------------------3-------|--2-------3--3----------3-------|
------------------0-0-0-0---0-0-0-|----0-0-0-------0-0-0-0---0-0-0-|
----------------------------------|--------------------------------|


                                                                    
----------------0-0-0-0-0-0-0-0-|--2-2-2-2-3-3-3-3-----------------|
--2-------3--3------------------|--------------------------3-------|
----0-0-0-----------------------|------------------0-0-0-0---0-0-0-|
--------------------------------|----------------------------------|


                                                                  
--------------------------------|----------------0-0-0-0-0-0-0-0-|
--2-------3--3----------3-------|--2-------3--3------------------|
----0-0-0-------0-0-0-0---0-0-0-|----0-0-0-----------------------|
--------------------------------|--------------------------------|


                                                                    
--2-2-2-2-3-3-3-3-----------------|--------------------------------|
--------------------------3-------|--2-------3--3----------3-------|
------------------0-0-0-0---0-0-0-|----0-0-0-------0-0-0-0---0-0-0-|
----------------------------------|--------------------------------|


                                                              
----------------0-0-0-0-0-0-0-0-|--2-2-2-2-3-3-3-3----------||
--2-------3--3------------------|---------------------------||
----0-0-0-----------------------|------------------0--------||
--------------------------------|---------------------------||





Comments


Popular Kreator tabs & chords
Enemy Of God Bass Tabs
Mental Slavery 2 Bass Tabs
As The World Burns Tabs
Catholics Despot Tabs
Command Of The Blade Tabs
Extreme Aggression Tabs
Living In Fear Tabs
Mental Slavery Tabs
Storm Of The Beast Tabs
Twisted Urges Tabs


Song lyrics



↑ Back to top | Tablatures and chords are parodies/interpretations of the original songs. You may use it for private study, scholarship, research or language learning purposes only
© 2014 AZChords.com Contact us | Privacy policy | DMCA | Add/correct tabs | Request tabs | Top 50 tabs