» » »

Under The Guillotine Tabs (ver.1)

Artists:  A B C D E F G H I J K L M N O P Q R S T U V W X Y Z # 

Under The Guillotine Tabs (ver.1)

Kreator
Rating:
0/5 (0 votes)

Hard to play? Try these video lessons and learn fast.
                

Tune down one whole step (DGCFAd)

Probably one of the fastest songs in (thrash) metal,
kicks so much ass! If I haven't convinced you to buy
this album yet, this is the last time I'll say it:
GET UP YOUR ASS AN GO f**kING BUY IT!!!! ;D

1) Main riff:
F|---------------------------------------------------------|
C|--------10------7------10-10-------10------7------10-10--|
G|--000000-8--00009--0000-8--8-000000-8--00009--0000-8--8--|
D|--......----....---....------......----....---....-------|

Another guitar comes in with a pick-slide.

2) Pre-chorus: "Too proud to scream..."
F|---------------------------------------------------|
C|--------------------8--8-------------------12--12--|
G|--5555555555555555556--6-55555555555555555510--10--|
D|--..................-----..................--------|

3) Chorus: "Under the guillotine!!!"
F|-------------------------------|
C|-------------------------------|
G|-------------------------------|
D|--333333333333333335555666666--|
    ...........................

4a) Interlude:
F|-------------------------------------|
C|-------------------8-7---------------|
G|--0-0-8-7-0-10-8-7-----5-7-10-8-7----|
D|--.-.-----------------------------8--|
 |Rhytm gtr:
F|-------------------------------------|
C|----2-2r-----------------------------|
G|----0-0r-----------------------------|
D|-------------------------------------|
4b)
F|-----------------------------------|
C|----------8-7-------------6-5------|
G|--0-7-8-7-----8-7-0-5-6-5-----6-5--|
D|--.---------------.----------------|
 |Rhytm gtr:
G|-----------------------------------|
C|--2-2r----2r------2r------2r-------|
G|--0-0r----0r------0r------0r-------|
D|----*------------------------------|
*hit this only the first time.

5) Solo rhytm:
F|----------------------------------------------------------5--4-----|
C|--------------------------5--4----0000000000000000000000003--2--5--|
G|--2222222222222222222222223--2--0-........................------3--|
D|--........................-----------------------------------------|
5b)
(palm-mute all the way)
F|--------------------------------------------------------------------|
C|--------------------------------------------------------------------|
G|--0000000000000000--------------------------------3333333322222222--|
D|------------------11111111111111113333333333333333------------------|

6a) Post-solo:
F|-------------------------------------------------------------------------------|
C|-------------(trill)-------------(trill)------------(trill)---------------8-7--|
G|----------10-9h10p9..---------12-11h12p11..---------8-7h8p7..---------8-7------|
D|--0-0-0-0-------------0-0-0-0---------------0-0-0-0-----------0-0-0-0----------|
    . . . .             . . . .               . . . .           . . . . . .
6b) Fill 1:
F|--8-7---------------|
C|------8-7-10-8-7----|
G|-----------------8--|
D|--------------------|

7) Solo rhytms:
F|---------------------------| |----------------------------|
C|--9---------4---9---7---5--| |------------4---9---7---12--|
G|--7------7--2---7---5---3--| |--2------7--2---7---5---10--|
D|--*------5-----------------| |--0------5------------------|
*following times replace with the lower D5-chord
(022xxx)

7b) Fill 2:
F|-----------------|
C|--------------5--|
G|--5---4---3---3--|
D|--3---2---1------|

After the solo repeat chorus four times.
Last time end chorus like this:
F|--------------------------------|
C|--------------------------------|
G|-----------------------------7--|
D|--3333333333333333355556666665--|
    ...........................

THE END.
            
Hard to play? Try these video lessons and learn fast. | Correct




comments powered by Disqus
↑ Back to top | Tablatures and chords are parodies/interpretations of the original songs. You may use it for private study, scholarship, research or language learning purposes only