>
 >
Twisted Urges

Twisted Urges Guitar Tabs

Kreator - Twisted Urges chords, tabs, tablatures, lyrics

Guitar lessons | Add/correct | Request | Top 50 tabs Artists:  A B C D E F G H I J K L M N O P Q R S T U V W X Y Z 0-9

Twisted Urges Guitar Tabs – Kreator

CD, Sheet music, Poster

Do you like Twisted Urges? Share with your friends now
Tabs
KREATOR - TWISTED URGES
(Coma Of Souls, 1990)

Key
= after note = vibrato
^ after note = heavy vibrato 
\ = slide down
/ = slide up
+ = tap
h = hammer
p = pull
n = natural harmonic
s = pinching harmonic (squeal)
* = tremolo pick
t = trill
b = bend
|-3-| = triplet

n number above the tab = play the first part then the first finishing part
			 play the first part a second time and then play the second finishing part
			 etc.

Intro A

E -------------------------------------------------------------------------------------------------
B -------------------------------------------------------------------------------------------------
G -15----------------------------------------------15----------------------------------------------
D ----14-13-14-16-14-16-14-16-14-13-------------------14-13-14-16-14-16-14-16-14-13----------------
A ----------------------------------16-14-13-14-16----------------------------------16-14-13-14-16-
E -------------------------------------------------------------------------------------------------

E -----------------------------------------------------------------------
B -----------------------------------------------------------------------
G -16----------------------------------------------18--------------------
D ----15-14-15-17-15-17-15-17-15-14-------------------17-16-17-19-17-19--
A ----------------------------------17-15-14-15-17-----------------------
E -----------------------------------------------------------------------

E -----------------------------------------------------------------
B -----------------------------------------------------------------
G -------------------2-3-5-3-2-------------------------------------
D ---2-3-5-3-2-----5-----------5-3---------------------------------
A -5-----------5-3-------------------2-3-5-3-2-----2-2-2-2-2-2-2-2-
E ---------------------------------5-----------5-3-----------------

Intro B

E -------------------------------------------------------------------------------------------------
B -------------------------------------------------------------------------------------------------
G -11----------------------------------------------11----------------------------------------------
D ----11-10-11-13-11-13-11-13-11-10-------------------11-10-11-13-11-13-11-13-11-10----------------
A ----------------------------------13-11-10-11-13----------------------------------13-11-10-11-13-
E -------------------------------------------------------------------------------------------------

E -----------------------------------------------------------------------
B -----------------------------------------------------------------------
G -13----------------------------------------------15--------------------
D ----12-11-12-14-12-14-12-14-12-11-------------------14-13-14-16-14-16--
A ----------------------------------14-12-11-12-14-----------------------
E -----------------------------------------------------------------------

E ---------------------------------------------------
B ---------------------------------------------------
G -7-------------------------------------------------
D -7--------5----------------------------------------
A -5--------5------------------------6-6-6-6-6-6-6-6-
E ----------3--------5-5-5-5-5-5-5-5-----------------

Riff 1

E ----------------------------------------------------------------------------
B ----------------------------------------------------------------------------
G ----------------------------------------------------------------------------
D -------3-2-0------------------------------3-2-0-----------11-11-00-00-------
A -0-0-0-------3-0-1-11-11-11-0-1-3-1-0-0-0-------3-0-33-33-------------11-11-
E ----------------------------------------------------------------------------

Riff 1A

E -------------------------------------------------------------------------------------------------
B -------------------------------------------------------------------------------------------------
G -------------------------------------------------------------------------------------------------
D -------------------------------------------------------------------------------11-11-00-00-------
A -00-00-00-00-00-00-00-00-11-11-11-11-11-11-11-11-00-00-00-00-00-00-00-00-33-33-------------11-11-
E -------------------------------------------------------------------------------------------------

Riff 1B

E ------------------------------------------------------------------------------
B ------------------------------------------------------------------------------
G ----------------------------------------------------------------------------2-
D -------3-2-0------------------------------3-2-0-----------11-11-00-00-------2-
A -0-0-0-------3-0-1-11-11-11-0-1-3-1-0-0-0-------3-0-33-33-------------11-11-0-
E ------------------------------------------------------------------------------

Riff 2

E -----------------------------------------------------------------------------------------
B -----------------------------------------------------------------------------------------
G -------------------------------------------5--------------------------------------4-5-4--
D -------------------------------------------5--------------------------------------4-5-4--
A -------------------------------------------3--------------------------------------2-3-2--
E -00-00-00-00-00-00-66-66-55-55-55-55-55-55----00-00-00-00-00-00-66-66-55-55-55-55--------

Riff 2A

E -----------------------------------------------------------------------------------------
B -----------------------------------------------------------------------------------------
G -------------------------------------------5--------------------------------------4-5-4--
D -------------------------------------------5--------------------------------------4-5-4--
A -------------------------00-00-00-00-00-00-3--------------------------00-00-00-00-2-3-2--
E -00-00-00-00-00-00-00-00----------------------00-00-00-00-00-00-00-00--------------------

Riff 3

E ---------------------------------------------------------------------------
B ---------------------------------------------------------------------------
G -2--------------------------------4-5-2--------------------------------4-5-
D -2-------------------0------5-----4-5-2-------------------0------5-----4-5-
A -0-00-0-00-0-00-0-00--------5-----2-3-0-00-0-00-0-00-0-00--------5-----2-3-
E -----------------------00-0-3-0-0---------------------------00-0-3-0-0-----

E -----------------------------------------------------------------------------
B -----------------------------------------------------------------------------
G -2--------------------------------4-5-2-------------------4--------------4-5-
D -2-------------------0------5-----4-5-2-------------------4--------------4-5-
A -0-00-0-00-0-00-0-00--------5-----2-3-0-00-0-00-0-00-0-00-2-22-2-22-2-22-2-3-
E -----------------------00-0-3-0-0--------------------------------------------

Riff 4

E ------------------------------------------------------------------------------
B ------------------------------------------------------------------------------
G ----------------------------5------4-5-5------------------------5------4-5-5--
D ---------------------3------5------4-5-3-----------------3------5------4-5-3--
A ---------------------3------3------2-3-------------------3------3------2-3----
E -0-00-0-00-0-00-0-00-1-00-0---0-00--------0-00-0-00-0-00-1-00-0---0-00--------

E ----------------------------------------------------------------------
B ----------------------------------------------------------------------
G -----------------------5------4-5-5------------------------5------4-5-
D ----------------3------5------4-5-3-----------------3------5------4-5-
A ----------------3------3------2-3-------------------3------3------2-3-
E -0-00-0-00-0-00-1-00-0---0-00--------0-00-0-00-0-00-1-00-0---0-00-----

Riff 5A

E ----------------------------------------------------------------
B ----------------------------------------------------------------
G -10-----9-8------12--11--14--9--------8---------------6---------
D -10-----9-8---10-12--11--14--9----------7---5-----------5-4-3---
A -8 -----7-6---10-10--9 --12--7--5-5-5-----6---5-3-3-3---------4-
E ----0-0-------8 ------------------------------------------------

Riff 5

E ---------------------------------------------------------------
B ---------------------------------------------------------------
G -------9-8------12--11--14--9--------8---------------6---------
D -------9-8---10-12--11--14--9----------7---5-----------5-4-3---
A -------7-6---10-10--9 --12--7--5-5-5-----6---5-3-3-3---------4-
E -0-0-0-------8 ------------------------------------------------

Riff 6

E -------------------------------------------------------------------------------------------------
B -------------------------------------------------------------------------------------------------
G -------------------------------------------------------------------------------------------------
D -------------------------------------33-33-22-22-------------------------------------------------
A -22-22-22-22-55-55-33-33-55-55-55-55-------------22-22-22-22-55-55-33-33-55-55-33-33-22-22-00-00-
E -------------------------------------------------------------------------------------------------

Order

Intro A/Intro B x 1
Riff 1 x 4
RIff 2 x 2
Riff 1 x 2
Riff 2 x 2
Riff 3 x 3
Riff 3A x 1
Riff 4 x 1
Riff 5A x 1
Riff 5 x 3
Solo over Riff 1A x 2
Riff 6 x 2
Solo over Riff 2A x 4
Solo over Riff 6 x 2
Riff 5 x 3 
Riff 1 x 1
Riff 1A x 1





Comments


Popular Kreator tabs & chords
Black Sunrise Bass Tabs
Riot Of Violence Bass Tabs
Agents Of Brutality Tabs
Awakening Tabs
Betrayer Tabs
Betrayer 1 Tabs
Ghetto War Tabs
Servant In Heaven / King In Hell Tabs
Storming With Menace Tabs
Toxic Trace Tabs


Song lyrics



↑ Back to top | Tablatures and chords are parodies/interpretations of the original songs. You may use it for private study, scholarship, research or language learning purposes only
© 2014 AZChords.com Contact us | Privacy policy | DMCA | Add/correct tabs | Request tabs | Top 50 tabs