>
 >
Toxic Trace

Toxic Trace Guitar Tabs

Kreator - Toxic Trace chords, tabs, tablatures, lyrics

Guitar lessons | Add/correct | Request | Top 50 tabs Artists:  A B C D E F G H I J K L M N O P Q R S T U V W X Y Z 0-9

Toxic Trace Guitar Tabs – Kreator

CD, Sheet music, Poster

Do you like Toxic Trace? Share with your friends now
Tabs
KREATOR - TOXIC TRACE
(Terrible Certainty, 1987)

Key
= after note = vibrato
^ after note = heavy vibrato 
\ = slide down
/ = slide up
+ = tap
h = hammer
p = pull
n = natural harmonic
s = pinching harmonic (squeal)
* = tremolo pick
t = trill
b = bend
|-3-| = triplet

n number above the tab = play the first part then the first finishing part
			 play the first part a second time and then play the second finishing part
			 etc.

Riff 1

E ----------------------------------------------------------------
B ----------------------------------------------------------------
G -------------------------------2-1------------------------------
D -7-7---------------------------3-2----------------------2-1-4-2-
A -0-0-0-0-0-0-0-0-0-0-0-0-0-4-3-----0-0-0-0-0-0-2--1-4-0---------
E ----------------------------------------------------------------

Riff 1A

E ------------------------------------------------------------------
B ---------------------------------------------------------9-8-11-9-
G -------------------------------2-1-------------8--7-10-9----------
D -7-7---------------------------3-2--------------------------------
A -0-0-0-0-0-0-0-0-0-0-0-0-0-4-3-----0-0-0-0-0-0--------------------
E ------------------------------------------------------------------

Riff 1B

E --------------------------------------------------------------------------------
B --------------------------------------------------------------------------------
G -------------------------------2-1----------------------------------------------
D -7-7---------------------------3-2----------------------2-1-4-2---------4-3-5-4-
A -0-0-0-0-0-0-0-0-0-0-0-0-0-4-3-----0-0-0-0-0-0-2--1-4-0---------4-3-5-4---------
E --------------------------------------------------------------------------------

Riff 1C

E ----------------------------------------------------------------------------------------
B ---------------------------------------------------------9-8-11-9------------10-9-12-11-
G -------------------------------2-1-------------8--7-10-9----------10-9-12-11------------
D -7-7---------------------------3-2------------------------------------------------------
A -0-0-0-0-0-0-0-0-0-0-0-0-0-4-3-----0-0-0-0-0-0------------------------------------------
E ----------------------------------------------------------------------------------------

Riff 1D

E -------------------------------------------------------------------------------------------------------
B -------------------------------------------------------------------------------------------------------
G -------------------------------2-1----------------------------------------------4-3--------------------
D -7-7---------------------------3-2----------------------2-1-4-2---------4-3-5-4-----4-5-4-2-4-5-4-2-2--
A -0-0-0-0-0-0-0-0-0-0-0-0-0-4-3-----0-0-0-0-0-0-2--1-4-0---------4-3-5-4--------------------------------
E -------------------------------------------------------------------------------------------------------

Riff 1E

E -------------------------------------------------------------------------------------------------------
B -------------------------------------------------------------------------------------------------------
G -------------------------------2-1----------------------------------------------8-7--------------------
D -7-7---------------------------3-2----------------------2-1-4-2-----3-2-6-5-8-6-----8-9-8-6-8-9-8-6-6--
A -0-0-0-0-0-0-0-0-0-0-0-0-0-4-3-----0-0-0-0-0-0-2--1-4-0---------4-3------------------------------------
E -------------------------------------------------------------------------------------------------------

Riff 2

E -----------------------------------------------------------------------------------------------
B -----------------------------------------------------------------------------------------------
G -----------------------------------------------------------------------------------------------
D -------------5----------6----------------------------------------------------------------------
A -------------6----------7----------22-22-22-22-------------------------22-22-22-22-33-33-55-55-
E -00-00-00-00---00-00-00---00-00-00-------------33-33-33-33-44-44-33-33-------------------------

E ------------------------------------------------------------------------------------------
B ------------------------------------------------------------------------------------------
G ------------------------------------------------------------------------------------------
D -------------5----------6--------------------------------------------------------------2--
A -------------6----------7----------22-22-22-22-33-33-33-33-44-44-33-33--------------------
E -00-00-00-00---00-00-00---00-00-00-------------------------------------11-11-11-11-3-0----

Riff 2A

E ---------------------------------------------------------------------------------------------------------------------
B ---------------------------------------------------------------------------------------------------------------------
G -7-------------------8-----------------------------------------------------------------7-------------------8---------
D -7-------------------8-------------------------------5----------6----------------------7-------------------8---------
A -5-55-5-55-5-55-5-55-6-66-6-66-6-66-6-66-------------6----------7----------22-22-22-22-5-55-5-55-5-55-5-55-6-66-6-66-
E -----------------------------------------00-00-00-00---00-00-00---00-00-00-------------------------------------------

E ------------
B ------------
G -10---------
D -10---------
A -8 -88-8-88-
E ------------

Riff 2B

E ---------------------------------------------------------------------------------------------------------------------
B ---------------------------------------------------------------------------------------------------------------------
G -7-------------------8-----------------------------------------------------------------7-------------------8---------
D -7-------------------8-------------------------------5----------6----------------------7-------------------8---------
A -5-55-5-55-5-55-5-55-6-66-6-66-6-66-6-66-------------6----------7----------22-22-22-22-5-55-5-55-5-55-5-55-6-66-6-66-
E -----------------------------------------00-00-00-00---00-00-00---00-00-00-------------------------------------------

E ----------------------------------------------------
B ----------------------------------------------------
G -10-------------------------------------------------
D -10---------8-------------------7---------5---------
A -8 -88-8-88-8-------------------7---------5---------
E ------------6-66-6-66-6-66-6-66-5-55-5-55-3-33-3-33-

Fill 1

E ---------------------
B ---------------------
G ---------------------
D -------------------5-
A -------------------3-
E -0------0------3-3-3-

Riff 3

E ----------------------------------------------------------------
B ----------------------------------------------------------------
G ----------------------------------------------------------------
D -7-----7-----7---10-----7---9---7-----7-----7---9-----7-----7---
A -8-8-8-8-8-8-8-8-8 -8-8-8-8-8-8-5-5-5-5-5-5-5-5-5-5-5-5-5-5-5-5-
E ----------------------------------------------------------------

E ---------------------------------------------------------------------------
B ---------------------------------------------------------------------------
G ---------------------------------------------------------------------------
D -7-----10-----9---7-----9---7----------------------------------------------
A -8-8-8-8 -8-8-8-8-8-8-8-8-8-8-8-11-11-11-11-4-11-11-11-2-11-11-4-11-11-----
E -----------------------------------------------------------------------3-0-

Riff 3A

E ----------------------------------------------------------------
B ----------------------------------------------------------------
G ----------------------------------------------------------------
D -7-----7-----7---10-----7---9---7-----7-----7---9-----7-----7---
A -8-8-8-8-8-8-8-8-8 -8-8-8-8-8-8-5-5-5-5-5-5-5-5-5-5-5-5-5-5-5-5-
E ----------------------------------------------------------------

E -------------------------------------------------------------------------
B -------------------------------------------------------------------------
G -------------------------------------------------------------------------
D -7-----10-----9---7-----9---7--------------------------------------------
A -8-8-8-8 -8-8-8-8-8-8-8-8-8-8-8-11-11-11-11-4-11-11-11-2-11-11-4-11-11-1-
E -----------------------------------------------------------------------2-

Riff 4

E ------------------------------------------------------------------
B ------------------------------------------------------------------
G ------------------------------------------------------------------
D ---------------------------------2-1----------------5---4---3---2-
A -7-7-----------------------------3-2-------------6----5---4---3---
E -0-0-0-0-0-0-0-0-0-0-0-0-00-22-3-----0-0-0-0-0-0------------------

Riff 4A

E ------------------------------------------------------------------
B ------------------------------------------------------------------
G ----------------------------------------------------3---2---1---0-
D ---------------------------------2-1-------------5----4---3---2---
A -7-7-----------------------------3-2------------------------------
E -0-0-0-0-0-0-0-0-0-0-0-0-00-22-3-----0-0-0-0-0-0------------------

Riff 5

E -------------------------------------------------------------------------------
B -------------------------------------------------------------------------------
G ------------------------------------------------------5-----5------------------
D -6------------6-----5-------------5-----4-------------5-----5--2---------------
A -7------------7-----6-------------6-----5-------------3-3-3-3--2---------------
E ----------------0-0-----------------0-0------------------------0---------------

Riff 5A

E -------------------------------------------------------------------------------
B -------------------------------------------------------------------------------
G -8------------8-----5-------------5-----3-------------5-----5------------------
D -6------------6-----5-------------5-----4-------------5-----5--2---------------
A ------------------------------------------------------3-3-3-3--2---------------
E ----------------0-0-----------------0-0------------------------0---------------

Riff 5B

E -----------------------------------------------------------------
B -----------------------------------------------------------------
G -----------------------------------------------------------------
D -----------------------------------------------------------------
A -----------------------------------------------------------------
E -0-0-0-0-0-0-0-0-0-0-0-0-0-0-0-0-0-0-0-0-0-0-0-0-0-0-0-0-0-0-0-0-

E -----------------------------------------------------------------
B -----------------------------------------------------------------
G -----------------------------------------------------------------
D -----------------------------------------------------------------
A -----------------------------------------------------------------
E -0-0-0-0-0-0-0-0-0-0-0-0-0-0-0-0-0-0-0-0-0-0-0-0-0-0-0-0-0-0-0-0-

Riff 5C

E ------------------------------------------------------------------------------------
B ------------------------------------------------------------------------------------
G ------------------------------------------------------5-----5-----------4--5--------
D -6------------6-----5-------------5-----4-------------5-----5--2--4--5--4--5--5--4--
A -7------------7-----6-------------6-----5-------------3-3-3-3--2--4--5--2--3--5--4--
E ----------------0-0-----------------0-0------------------------0--2--3--------3--2--

Order


Riff 1/1A x 1
Riff 1B/1C x 1
Riff 1 x 5
Riff 1D/1E x 1
Riff 2 x 3
Fill 1 x 1
Riff 2 x 2
Riff 3 x 1
Riff 2 x 2
Riff 3 x 1
Riff 1/1A x 1
Riff 1 x 5
Riff 4/4A x 4
Riff 5/5A x 2
Riff 5/5B x 3
Riff 5B/5C x 1
Riff 2 x 1
Solo over Riff 2 x 2
Solo over Riff 2A x 1
Solo over Riff 2B x 1
Riff 2 x 2
Riff 3A x 1
Riff 5/5A x 2





Comments


Popular Kreator tabs & chords
Under The Guillotine Bass Tabs
Violent Revolution Bass Tabs
Bringer Of Torture Tabs
Catholics Despot Tabs
Civilization Collapse Intro Tabs
Ghetto War Tabs
Living In Fear Tabs
People Of The Lie 1 Tabs
Pleasure To Kill 1 Tabs
Replicas Of Life Tabs


Song lyrics



↑ Back to top | Tablatures and chords are parodies/interpretations of the original songs. You may use it for private study, scholarship, research or language learning purposes only
© 2014 AZChords.com Contact us | Privacy policy | DMCA | Add/correct tabs | Request tabs | Top 50 tabs