» » »

The Patriarch Bass tabs (ver.1)

Artists:  A B C D E F G H I J K L M N O P Q R S T U V W X Y Z # 

The Patriarch Bass tabs (ver.1)

Kreator
Rating:
0/5 (0 votes)

Hard to play? Try these video lessons and learn fast.
                tune down
F||--------------------|-------------------|-------------------|
C||*-------------------|-------------------|-------------------|
G||*-------------------|--3----------------|-------------------|
D||---0----------------|-------------------|--0----------------|


                                                                     
-----------------------||---------------------||--------------------|
----------------------*||----------------3----||*-------------------|
--3------2------------*||--3------5-----------||*--3----------------|
----------------3--2---||---------------------||--------------------|


                          3x                                          
--------------------------||-------------------||--------------------|
----------------------0--*||-------------------||*-------------------|
-------------0--2--3-----*||--2----------------||*-------------------|
----0--2--3---------------||-------------------||---0----------------|


                                                                 
-------------------|-------------------|-----------------------||
-------------------|-------------------|----------------------*||
--3----------------|-------------------|--3------2------------*||
-------------------|--0----------------|----------------3--2---||


                                           
---------------------|-------------------||
----------------3----|-------------------||
--3------5-----------|-------------------||
---------------------|--0----------------||
            
Hard to play? Try these video lessons and learn fast. | Correct




comments powered by Disqus
↑ Back to top | Tablatures and chords are parodies/interpretations of the original songs. You may use it for private study, scholarship, research or language learning purposes only