>
 >
Terror Souls

Terror Souls Bass Tabs

Kreator - Terror Souls chords, tabs, tablatures, lyrics

Guitar lessons | Add/correct | Request | Top 50 tabs Artists:  A B C D E F G H I J K L M N O P Q R S T U V W X Y Z 0-9

Terror Souls Bass Tabs – Kreator

CD, Sheet music, Poster

Do you like Terror Souls? Share with your friends now
Bass Tabs
A - Guitar 1                                                     Play 4
Times
|-----9------7------|-----9------7------|-----------------|-----------------|
|-7-9---9-10---10-9-|-7-9---9-10---10-9-|-5-------5-------|-----------------|
|-------------------|-------------------|---5-7-8---8-7-5-|-3-------5-------|
|-------------------|-------------------|-----------------|---5-7-8---8-7-3-|

  pm..................................................................
  - Guitar 2
|-------------------|-------------------|-----------------|-----------------|
|-2-----------------|-2---------------2-|-----------------|-----------------|
|-0-----------------|-0---------------0-|-5---------------|-3-------2---5---|
|-------------------|-------------------|-3---------------|-1-------0---3---|




Fill
|----------------------------|-----------|
|-2--------------------------|-----------|
|-0--------------------------|--5--7--8--|
|----------------------------|--3--5--6--|


B           (1 & 3)                      (2)                  (4)
|------------------------------|---------------------|----------------|
|------------------------3--2--|---------------------|----------------|
|-------2----------3--2--1--0--|----2----------1--2--|----2--5--7--8--|
|-0--0--0--0-0-0-0-1--0--------|-0--0--0-0-0-0-------|-0--0--3--5--6--|
  pm....   pm......              pm.   pm......        pm.


C - Guitar 1
|-4------------------------|-4------------------------|-4----------------------|
|-2------------------------|-2------------------------|-2----------------------|
|--------------------------|--------------------------|-----------2-2-2-2------|
|------------3-3-3-3-2--3--|------------3-3-3-3-2--3--|-------------------2--3-|

             pm..........             pm..........
pm...........
C - Guitar 2
|-8------------------------|-4------------------------|------------------------|
|-6------------------------|-2------------------------|-5----------------------|
|--------------------------|--------------------------|-3---------2-2-2-2------|
|------------3-3-3-3-2--3--|------------3-3-3-3-2--3--|-------------------2--3-|

             pm..........             pm..........
pm...........


D1
|-------------------------------------------------------------|
|-----------------------------------------------------1-3-4-3-|
|---------------------------------1-1-1-1-1-1-1-1-1-1---------|
|-0-0-0-0-0-0-0-0-0-0-0-0-0-0-1-0-----------------------------|
  pm..........................................................


D2
|-------------------------------------------------------------|
|---------------------------------------------1-3-4-3-1-------|
|---------------------------------2-2-2-2-2-2-----------2-1---|
|-0-0-0-0-0-0-0-0-0-0-0-0-0-0-1-0---------------------------3-|
  pm..........................................................


Repeat (D1 & D2)


E1
|-------------------------------------------------------------|
|---------------------------------3-------------------1-3-4-3-|
|-2-------------------------------1---------------------------|
|-0-----------------------0-0-1-0-----------------------------|
                          pm......                    pm......


E2
|-------------------------------------------------------------|
|---------------------------------------------1-3-4-3-1-------|
|-2-------------------------------3---------------------2-1---|
|-0-----------------------0-0-1-0-1-------------------------3-|
                          pm......            pm..............


Repeat E1


E3
|-------------------------------------------------------------|
|---------------------------------------------5---------6-----|
|-2-------------------------------3-----------3----5----4-----|
|-0-----------------------0-0-1-0-1----------------3----------|
                          pm......


F1                                                     Play 2 Times
|-5-4-----5-4-----5-4-----5-4-----4-3-----4-3-----4-3-----4-----3-|
|-----6-5-----6-5-----6-5-----6-5-----5-4-----5-4-----5-4---4-5---|
|-----------------------------------------------------------------|
|-----------------------------------------------------------------|
  pm..............................................................


Repeat F1 with F2 doubling (see below)

F2
|-9-8------9-8------9-8------9-8------8-7-----8-7-----8-7-----8-----7-|
|-----10-9-----10-9-----10-9-----10-9-----9-8-----9-8-----9-8---8-9---|
|---------------------------------------------------------------------|
|---------------------------------------------------------------------|
  pm..................................................................





Comments


Popular Kreator tabs & chords
Violent Revolution Bass Tabs
Civilization Collapse Intro Tabs
Death Is Your Saviour Tabs
Extreme Agression Tabs
Flag Of Hate Tabs
Hidden Dictator Tabs
Some Pain Will Last 1 Tabs
The Patriarch 1 Tabs
Violent Revolution 1 Tabs
When The Sun Burns Red Tabs


Song lyrics



↑ Back to top | Tablatures and chords are parodies/interpretations of the original songs. You may use it for private study, scholarship, research or language learning purposes only
© 2014 AZChords.com Contact us | Privacy policy | DMCA | Add/correct tabs | Request tabs | Top 50 tabs