» » »

Kreator, Terrible Certainty Tabs (ver.1)

Artists:  A B C D E F G H I J K L M N O P Q R S T U V W X Y Z # 

Terrible Certainty Tabs (ver.1)

Kreator Tabs
 Rating:
4/5 (4 votes)
Terrible Certainty lessons Tabs too difficult? Try these video lessons and learn fast
                "Terrible Certainty" by Kreator



E||---------------------------------|---------------------------------||
B||---------------------------------|---------------------------------||
G||------------------------6--4-----|--4--------4------------5--------||
D||--6--------6------------6--4-----|--4--------4------------5--6--3--||
A||--6--------6------------4--2--0--|--2---2-2--2---2-2-2-2--3--6--3--||
E||--4---4-4--4---4-4-4-4-----------|---------------------------4--1--||
        PM--|    PM------|                PM--|    PM------|



||------------------------------|--------------------------------|
||------------------------------|--------------------------------|
||---------------------------4--|--------------------------------|
||-------2--3--2-------5--4-----|-------2--3--2------------------|
||------------------------------|----------------2---------------|
||--0-0-----------0-0-----------|--0-0--------------0-0-3-0-2-0--|
   PM--|         PM--|            PM--|            PM----------| 



|------------------------------|------------------------------||
|------------------------------|------------------------------||
|---------------------------4--|-------------5--4--3--4-------||
|-------2--3--2-------5--4-----|-------2--3-------------------||
|------------------------------|------------------------------||
|--0-0-----------0-0-----------|--0-0-------------------------||
  PM--|         PM--|            PM--|



                             +  o
||-------------------------------|--------------------------------||
||-------------------------------|--------------------------------||
||---------------------------1'--|--------------------------------||
||-----------------------3-2-----|-----------------------3-2-3-2--||
||-------------------------------|--------------------------------||
||--0-0023-0-0023-0-0023---------|--0-0023-0-0023-0-0023----------||
   PM-------------------|          PM-------------------|



                         +    o                         .  .
|------------------------------|-------------------------------|
|------------------------------|-------------------------------|
|------------------------6-5---|------------------------4--4---|
|------------------------4-3---|------------------------2--2---|
|--0-0012-0-0012-0-0012--------|--0-0012-0-0012-0-0012---------|
|------------------------------|-------------------------------|
  PM-------------------|         PM-------------------|



                            +  o
|-------------------------------|-------------------------------|
|-------------------------------|-------------------------------|
|---------------------------1'--|------------------------4------|
|-----------------------3-2-----|------------------------4--4---|
|-------------------------------|------------------------2--4---|
|--0-0023-0-0023-0-0023---------|--0-0023-0-0023-0-0023-----2---|
  PM-------------------|          PM-------------------|
            
Submit corrections

comments powered by Disqus
↑ Back to top | Kreator Tabs for Terrible Certainty. Lyrics for acoustic guitar and electric guitar. Tablatures and chords are parodies/interpretations of the original songs. You may use it for private study, scholarship, research or language learning purposes only