>
 >
Storming With Menace

Storming With Menace Guitar Tabs

Kreator - Storming With Menace chords, tabs, tablatures, lyrics

Guitar lessons | Add/correct | Request | Top 50 tabs Artists:  A B C D E F G H I J K L M N O P Q R S T U V W X Y Z 0-9

Storming With Menace Guitar Tabs – Kreator

CD, Sheet music, Poster

Do you like Storming With Menace? Share with your friends now
Tabs
storming with menace
--------------------

1a) Main riff:
|-------------------------------------------------------------------|
|-------------------------------------------------------------------|
|--0000006-5---5---5-00007-00008-000000006-5---5---------5-4--------|
|------------6---6---------------------------6---6-444444----6-5-3--|
   ....... . . . .   ....  ....  ......... . . . . ....... . . . .
1b)
|-------------------------------------------------------------------|
|--------4-3---3---3-----5-----6---------4-3---3--------------------|
|--333333----4---4---3333--3333--33333333----4---4-1111114-3--------|
|------------------------------------------------------------5-4-2--|
   ....... . . . .   ....  ....  ......... . . . . ....... . . . .

2a) Chorus:
|-----------3-2h3p2h3-----------4-5-4-----------------5-----4-----5\4--|
|---------------------3-333-333-2-3-2-----------------3-----2-----3\2--|
|--0-000-000--------------------------4-444-444-4-4-4---0-0---0-0------|
|----------------------------------------------------------------------|
   . ... ...          . ... ...       . ... ... . . .   . .   . .
2b)
|-----------3-2h3p2h3-----------4-5-4----------------------------------|
|---------------------3-333-333-2-3-2-----------------5-----4-----5\4--|
|--0-000-000------------------------------------------3-----2-----3\2--|
|-------------------------------------4-444-444-4-4-4---0-0---0-0------|
   . ... ...          . ... ...       . ... ... . . .   . .   . .

3) Fill 1: (before 2nd verse)
|-----------------------------|
|------------5-----4-----5\4--|
|--6-6r------3-----2-----3\2--|
|--4-4r--------0-0---0-0------|
               . .   . .

4a) Middle-section:                         (trill)
|----10-9-7-9-10---7---10---9---10-9-7-9-10-9h10p9..-----9-------|
|--7-------------8---8----8---7-----------------------10---10-9--|
|----------------------------------------------------------------|
|----------------------------------------------------------------|
Rhytm guitar: (not 100% sure 'bout this)
|----------------------------------------------------------------|
|--2-------------3------------2-------------3-----------3-----3--|
|--0-------------1------------0-------------1-----------1-----1--|
|-------------------------------------------------------.-----.--|
4b) Harmony (2nd guitar)                                 (trill)
|-----13-12-10-12-13----10----13----12----12-12-10-12-13-12h13p12..----12--------|
|--10----------------11----11----11----10---------------------------13----13-12--|
|--------------------------------------------------------------------------------|
|--------------------------------------------------------------------------------|

End with an A5-chord (x022xx)

5a) Solo rhytm:
(this is the closest I could get...)
|----------------------------------------------------|
|----------------------------------------------------|
|----------------------------------------------------|
|-0000000000004444444444445555555555556666667p6h7p6--|
  ..........................................
5b)
|-----------------------------------------------|
|-------4----5----4----------3----2----6-6-6-6--|
|-333333--333--333--333000000--000--0004-4-4-4--|
|-......--...--...-----......--...--...---------|

6) Fill 1: (before chorus)
|-----------------------------------------------------------------|
|--5-5-5-5-5-5-5-5-5-5-5-5-5-5-5-5-5-----4-----5-----4-----5---4--|
|--3-3-3-3-3-3-3-3-3-3-3-3-3-3-3-3-3-----2-----3-----2-----3---2--|
|------------------------------------0-0---0-0---0-0---0-0---0----|
   . . . . . . . . . . . . . . . . . . .   . .   . .   . .   .

7) End fill:
|----------------------------------------------|
|--5-----4-----5\4-2-------5-----4-----5\4-2r--|
|--3-----2-----3\2-0r------3-----2-----3\2-0r--|
|----0-0---0-0---------------0-0---0-0---------|
     . .   . .               . .   . .





Comments


Popular Kreator tabs & chords
Endorama Bass Tabs
Mental Slavery Bass Tabs
After The Attack Tabs
Agents Of Brutality (Solo) Tabs
Awakening 1 Tabs
Bomb Threat 1 Tabs
Celestial Deliverance Tabs
Flag Of Hate 1 Tabs
One Evil Comes - A Million Follow Tabs
Twisted Urges Tabs


Song lyrics



↑ Back to top | Tablatures and chords are parodies/interpretations of the original songs. You may use it for private study, scholarship, research or language learning purposes only
© 2014 AZChords.com Contact us | Privacy policy | DMCA | Add/correct tabs | Request tabs | Top 50 tabs