» » »

Kreator, Some Pain Will Last Tabs (ver.1)

Artists:  A B C D E F G H I J K L M N O P Q R S T U V W X Y Z # 

Some Pain Will Last Tabs (ver.1)

Kreator Tabs
 Rating:
4/5 (4 votes)
Some Pain Will Last lessons Tabs too difficult? Try these video lessons and learn fast
1
                "Some Pain Will Last" by Kreator



   Gtr I
E|---------------------|----------|----------|-------------|-------------|
B|---------------------|----------|----------|-------------|-------------|
G|---------------------|----------|----------|-------------|-------------|
D|-------8--------8----|--9---8---|--8---7---|--7----2--3--|--3----7--6--|
A|-----8--------8------|----------|----------|-------------|-------------|
E|---6--------6--------|----------|----------|-------------|-------------|
 |                                                                       |
 |                                                                       |
 |                                                                       |
 | Gtr II                                                                |
E|---------------------|----------|----------|-------------|-------------|
B|---------------------|----------|----------|-------------|-------------|
G|---------___---------|----------|----------|-------------|-------------|
D|---------------------|--8-------|--7-------|--3----------|--6----------|
A|---------------------|--8-------|--7-------|--3----------|--6----------|
E|---------------------|--6-------|--5-------|--1----------|--4----------|




                                                               (Gtr I out)
|-----------------|-----------------|------------------|------------------|
|-----------------|-----------------|------------------|------------------|
|-----------------|-----------------|------------------|------------------|
|-8-9-8-9-8-9-8-9-|-7-8-7-8-7-8-7-8-|-2-3-2-3-2-3-2-3--|-6-7-6-7-6-7-6-7--|
|-----------------|-----------------|------------------|------------------|
|-----------------|-----------------|------------------|------------------|
|                                                                         |
|                                                                         |
|                                                                         |
|                                                                         |
|-----------------|-----------------|------------------|------------------|
|-----------------|-----------------|------------------|------------------|
|-----------------|-----------------|------------------|---5---5---5---5--|
|-8---------------|-7---------------|---3---3---3---3--|--5-5-5-5-5-5-5-5-|
|-8---------------|-7---------------|--3-3-3-3-3-3-3-3-|-3---3---3---3----|
|-6---------------|-5---------------|-1---1---1---1----|------------------|

                                     PM - - - - - - - - - - - - - - - - -|




|------------------|------------------|------------------|------------------|
|------------------|------------------|------------------|------------------|
|------------------|------------------|------------------|---5---5---5---5--|
|---8---8---8---8--|---7---7---7---7--|---3---3---3---3--|--5-5-5-5-5-5-5-5-|
|--8-8-8-8-8-8-8-8-|--7-7-7-7-7-7-7-7-|--3-3-3-3-3-3-3-3-|-3---3---3---3----|
|-6---6---6---6----|-5---5---5---5----|-1---1---1---1----|------------------|

 PM to end - - ->



||----------------------------------------------|
||----------------------------------------------|
||----------------------------------------------|
||--8-------------------------------------------|
||--8-------------------------------------------|
||--6---777777-6---777777-6---777777-6---777777-|

       PM - - - - - - - - - - - - - - - - - - -|



|----------------------------------------------|
|----------------------------------------------|
|----------------------------------------------|
|--7-------------------------------------------|
|--7-------------------------------------------|
|--5---666666-5---666666-5---666666-5---666666-|

      PM - - - - - - - - - - - - - - - - - - -|



|----------------------------------------------|
|----------------------------------------------|
|----------------------------------------------|
|--3-------------------------------------------|
|--3-------------------------------------------|
|--1---111111-0---111111-0---111111-0---111111-|

      PM - - - - - - - - - - - - - - - - - - -|



|----------------------------------------------||
|----------------------------------------------||
|----------------------------------------------||
|--6-------------------------------------------||
|--6-------------------------------------------||
|--4---555555-4---555555-4---555555-4---555555-||

      PM - - - - - - - - - - - - - - - - - - -|
            
Submit corrections

comments powered by Disqus
↑ Back to top | Kreator Tabs for Some Pain Will Last. Lyrics for acoustic guitar and electric guitar. 1 Tablatures and chords are parodies/interpretations of the original songs. You may use it for private study, scholarship, research or language learning purposes only