>
 >
Ripping Corpse

Ripping Corpse Guitar Tabs

Kreator - Ripping Corpse chords, tabs, tablatures, lyrics

Guitar lessons | Add/correct | Request | Top 50 tabs Artists:  A B C D E F G H I J K L M N O P Q R S T U V W X Y Z 0-9

Ripping Corpse Guitar Tabs – Kreator

CD, Sheet music, Poster

Do you like Ripping Corpse? Share with your friends now
Tabs
KREATOR - RIPPING CORPSE
(Pleasure To Kill, 1986)

Key
= after note = vibrato
^ after note = heavy vibrato 
\ = slide down
/ = slide up
+ = tap
h = hammer
p = pull
n = natural harmonic
s = pinching harmonic (squeal)
* = tremolo pick
t = trill
b = bend
|-3-| = triplet

n number above the tab = play the first part then the first finishing part
			 play the first part a second time and then play the second finishing part
			 etc.

Tune Down 1 Step

Riff 1

D -------------------------------------------------
A -------------------------------------------------
F -------------------------------------------------
C -------------------------------------------------
G ----22-11-------22-11-------22-11-22-44-22-11----
D -00-------33-00-------33-00-------------------33-

Riff 1A

D -------------------------
A -------------------------
F -------------------------
C -2--2--2--2--2--2--2--2--
G -2--2--2--2--2--2--2--2--
D -0--0--0--0--0--0--0--0--

Riff 2

D -----------------------------------------------------------------------------------------------
A -----------------------------------------------------------------------------------------------
F ----------------------------------------------------------------------------------------12-11--
C ----------------------------------------------------------------------------------------12-11--
G ----------------------------------------22-22-22----------------------------------------10-9 --
D -00-00-00-00-00-00-00-00-00-00-00-00-00----------00-00-00-00-00-00-00-00-00-00-00-00-00--------

Riff 3

D -------------------------------------------------------------------------------------
A -------------------------------------------------------------------------------------
F -------------------------------------------------------------------------------------
C ------------------------------------5-4---------------------------------------5-4----
G -44-44-44-44-44-44-44-44-5-44-44-44-----5--44-44-44-44-44-44-44-44-5-44-44-44-----5--
D -------------------------------------------------------------------------------------

D -------------------------------------------------------------------------------------
A -------------------------------------------------------------------------------------
F -------------------------------------------------------------------------------------
C ------------------------------------5-4---------------------------------------5-4----
G -44-44-44-44-44-44-44-44-5-44-44-44-----5--44-44-44-44-44-44-44-44-5-44-44-44-----5--
D -------------------------------------------------------------------------------------

D -------------------------------------------------------------------------------------
A -------------------------------------------------------------------------------------
F -------------------------------------------------------------------------------------
C ------------------------------------3-2---------------------------------------3-2----
G -22-22-22-22-22-22-22-22-3-22-22-22-----3--22-22-22-22-22-22-22-22-3-22-22-22-----3--
D -------------------------------------------------------------------------------------

D -------------------------------------------------------------------------------------
A -------------------------------------------------------------------------------------
F -------------------------------------------------------------------------------------
C ------------------------------------5-4---------------------------------------5-4----
G -44-44-44-44-44-44-44-44-5-44-44-44-----5--44-44-44-44-44-44-44-44-5-44-44-44-----5--
D -------------------------------------------------------------------------------------

Riff 4

D -------------------------------------------------
A -------------------------------------------------
F -6--7--8--9--6--7--8--9--6--7--8--9--6--7--8--9--
C -6--7--8--9--6--7--8--9--6--7--8--9--6--7--8--9--
G -4--5--6--7--4--5--6--7--4--5--6--7--4--5--6--7--
D -------------------------------------------------

Riff 5

D -------------------------------------------------------------------------------------------------
A -------------------------------------------------------------------------------------------------
F -------------------------------------------------------------------------------------------------
C -------------------------------------------------------------------------33-33-33-33-22-22-22-22-
G -------------------------33-33-33-33-22-22-22-22-00-00-00-00-00-00-33-33-------------------------
D -00-00-00-00-00-00-33-33-------------------------------------------------------------------------

Riff 6

D -------------------------------------------------
A -------------------------------------------------
F -------------------------------------------------
C -------------------------------------------------
G -22-22-22-22-22-22-33-33-55-55-55-55-33-33-33-33-
D -------------------------------------------------

Riff 7

D ---------------------------------------------------------------------------
A ---------------------------------------------------------------------------
F ---------------------------------------------------------------------------
C ---------------------------------------------------------------------------
G -------------------------5-4----------------------------------5-4----------
D -44-44-44-44-44-44-44-44-----5--4--5--44-44-44-44-44-44-44-44-----5--4--5--

D ---------------------------------------------------------------------------
A ---------------------------------------------------------------------------
F ---------------------------------------------------------------------------
C ---------------------------------------------------------------------------
G -------------------------5-4----------------------------------5-4-------1--
D -44-44-44-44-44-44-44-44-----5--4--5--44-44-44-44-44-44-44-44-----5--4-----

D ---------------------------------------------------------------------------
A ---------------------------------------------------------------------------
F ---------------------------------------------------------------------------
C -------------------------3-2----------------------------------3-2----------
G -22-22-22-22-22-22-22-22-----3--2--3--22-22-22-22-22-22-22-22-----3--2--3--
D ---------------------------------------------------------------------------

D ---------------------------------------------------------------------------
A ---------------------------------------------------------------------------
F ---------------------------------------------------------------------------
C -------------------------3-2----------------------------------3-2----------
G -22-22-22-22-22-22-22-22-----3--2--3--22-22-22-22-22-22-22-22-----3--2--3--
D ---------------------------------------------------------------------------

Riff 8

D -------------------------------------------------
A -------------------------------------------------
F -7--6--4--3--7--6--4--3--7--6--4--3--7--6--10----
C -7--6--4--3--7--6--4--3--7--6--4--3--7--6--10----
G -5--4--2--1--5--4--3--1--5--4--3--1--5--4--8 ----
D -------------------------------------------------

Order

Riff 1/1A x 2
Riff 1 x 4
Riff 2 x 4
Riff 1 x 2
Riff 3 x 1
Riff 2 x 4
Riff 3 x 1
Riff 4 x 1
Riff 5 x 4
Solo over Riff 6 x 8
Riff 5 x 4
Riff 7 x 1
Riff 8 x 2
Riff 2 x 4
Riff 3 x 1
Riff 1/1A x 2
Solo over Riff 6 x 8





Comments


Popular Kreator tabs & chords
Corpses Of Liberty Bass Tabs
Endorama Bass Tabs
Awakening 1 Tabs
Awakening Of The Gods Tabs
Cry War Tabs
Mental Slavery Tabs
Phobia 3 Tabs
Servant In Heaven / King In Hell Tabs
Terrible Certainty Tabs
Toxic Trace Tabs


Song lyrics



↑ Back to top | Tablatures and chords are parodies/interpretations of the original songs. You may use it for private study, scholarship, research or language learning purposes only
© 2014 AZChords.com Contact us | Privacy policy | DMCA | Add/correct tabs | Request tabs | Top 50 tabs