» » »

Rippin Corpse Tabs (ver.1)

Artists:  A B C D E F G H I J K L M N O P Q R S T U V W X Y Z # 

Rippin Corpse Tabs (ver.1)

Kreator
Rating:
0/5 (0 votes)

Hard to play? Try these video lessons and learn fast.
                Rippin Corpse 
As recorded by Kreator
(from the 1986 Album Pleasur to Kill)

Tune down one whole step (DGCFAd)

One of the most brutal thrash/death tunes ever. Gives
a hard time for your left hand, but then again, tell
me one old Kreator song which doesn't!!
Btw. try to play the whole album along with the record
without pausing between songs. If you can do that, you're
a true thrash guitar-master ;)

1) Intro:
F|------------------------------------|
C|------------------------------------|
G|----2211----2211----221122442211----|
D|--00----2200----2200------------22--|
 |  ................................
 |Rhytm guitar:
F|---------------------------------|
C|---------------------------------|
G|--2---2---2---2---2---2---2---2--|
D|--0---0---0---0---0---0---0---0--|

2) Verse riff:
F|------------------------------------------------------|
C|-----------------------4/5---------------------12\10--|
G|-----------------------2/3---------------------10\-9--|
D|--000000000000000000000---000000000000000000000-------|
    .....................   .....................

3a) Chorus:
F|------------------------------|
C|---------------------5--------|
G|-44444444444455447744-444754--|
D|------------------------------|
3b)
F|------------------------------|
C|---------------------3--------|
G|-22222222222233225522-222532--|
D|------------------------------|

4) Fill 1:
Play 4 times.
F|-----------|
C|--6-7-8-9--|
G|--4-5-6-7--|
D|-----------|

5) Post-chorus:
F|--------------------------------------------------|
C|----------------------------------3333332222------|
G|------------3333332222220000000033----------3333--|
D|--0000000033--------------------------------------|

6) Solo rhytm:
(Palm-mute throuhgout)
F|------------------------------------------------|
C|------------------------------------------------|
G|--22222222335555553333332222222233555555--------|
D|----------------------------------------333333--|

7a) Interlude:
F|----------------------------|
C|----------------------------|
G|--------------5544----------|
D|--444444444444----55445544--|
7b)
F|----------------------------|
C|--------------3322----------|
G|--222222222222----33223322--|
D|----------------------------|

8) Bridge:
F|------------------------------*---|
C|--7-6-5-4-7-6-5-4-7-6-5-4-7-6-10--|
G|--5-4-3-2-5-4-3-2-5-4-3-2-5-4--8--|
D|----------------------------------|
*2nd time let ring.

End with a D5-chord.
            
Hard to play? Try these video lessons and learn fast. | Correct




comments powered by Disqus
↑ Back to top | Tablatures and chords are parodies/interpretations of the original songs. You may use it for private study, scholarship, research or language learning purposes only