>
 >
Riot Of Violence

Riot Of Violence Guitar Tabs

Kreator - Riot Of Violence chords, tabs, tablatures, lyrics

Guitar lessons | Add/correct | Request | Top 50 tabs Artists:  A B C D E F G H I J K L M N O P Q R S T U V W X Y Z 0-9

Riot Of Violence Guitar Tabs – Kreator

CD, Sheet music, Poster

Do you like Riot Of Violence? Share with your friends now
Bass TabsTabs
KREATOR - RIOT OF VIOLENCE
(Pleasure To Kill, 1986)

Key
= after note = vibrato
^ after note = heavy vibrato 
\ = slide down
/ = slide up
+ = tap
h = hammer
p = pull
n = natural harmonic
s = pinching harmonic (squeal)
* = tremolo pick
t = trill
b = bend
|-3-| = triplet

n number above the tab = play the first part then the first finishing part
			 play the first part a second time and then play the second finishing part
			 etc.

Tune Down 1 Step

Intro

D -------------------------------------------------------------------------------------------------------------------
A -------------------------------------------------------------------------------------------------------------------
F -----------------------------------5---------------------------------------------------------------------------5---
C -----------------------------------5-------------------------------------5-------------------------------------5---
G -----------------------------------3-------------------------------------5-------------------------------------3---
D -0---2-2-3-0---2-2-3-0---2-2-3-0-------0---2-2-3-0---2-2-3-0---2-2-3-0---3---0---2-2-3-0---2-2-3-0---2-2-3-0-------

D ---------------------------------------
A ---------------------------------------
F ---------------------------------------
C -----------------------------------5---
G -----------------------------------5---
D -0---2-2-3-0---2-2-3-0---2-2-3-0---3---

Riff 1

D -------------------------------
A -------------------------------
F -------3-----------------5--3--
C -------3-----------3-----5--3--
G -------1-----------3-----3--1--
D -0-0-0---0-0-0-0-0-1-0-0-------

Riff 1A

D ---------------------------
A ---------------------------
F -------3-----n5----\--/----
C -------3-------------------
G -------1-------------------
D -0-0-0---0-0---------------

Riff 1B

D --------------------------
A --------------------------
F -------3------------------
C -------3------------------
G -------1------------------
D -0-0-0---0-0-0----\--/----

Riff 2

D -----------------------------------------------------------
A -------------------------------------------------------3-2-
F -3------3------2------2------3------3------3-2-0-5-3-2-----
C -3------3------2------2------3------3----------------------
G -1--1-1-1--1-1-0--0-0-0--0-0-1--1-1-1--1-1-----------------
D -----------------------------------------------------------

Riff 2A

D ----------------------------------------------------
A ----------------------------------------------------
F -3------3------2------2------3------3------2--------
C -3------3------2------2------3------3------2--------
G -1--1-1-1--1-1-0--0-0-0--0-0-1--1-1-1--1-1-0--------
D ----------------------------------------------------

Riff 2B

D -------------------------------------------------------------------
A -------------------------------------------------------------15-14-
F -3------3------2------2------3------3------15-14-12-17-15-14-------
C -3------3------2------2------3------3------------------------------
G -1--1-1-1--1-1-0--0-0-0--0-0-1--1-1-1--1-1-------------------------
D -------------------------------------------------------------------

Riff 3

D ---------------------------------
A ---------------5-----------------
F ---5-4---7-5-------5-4---7-5-4---
C -0-----0-----0---0-----0-------4-
G ---------------------------------
D ---------------------------------

Riff 3A

D ---------------------------------
A ---------------------------------
F ---------------------------------
C ---5-4---7-5-4-----5-4---7-5-----
G -0-----0-------4-0-----0-----5-4-
D ---------------------------------

Riff 4

D -----------------------------------------
A -----------------------------------------
F -------------5-4-7-6-------------5-4-2-4-
C -------------5-4-7-6-------------5-4-2-4-
G -22-22-22-22-3-2-5-4-22-22-22-22-3-2-0-2-
D -----------------------------------------

Riff 5

D ------------------------------------------
A ------------------------------------------
F ------------------------------------------
C -00-00-00-2-00-00-00-2-00-00-00-2-----3-2-
G ----------------------------------3-2-----
D ------------------------------------------

Riff 6

D ----------------------------------------------------------
A ----------------------------------------------------------
F ----------------------------------------------------------
C -4------4------4------4-5---4------4----------------------
G -4------4------4------4-5---4------4------3-2---5-3-2-----
D -2--2-2-2--2-2-2--2-2-2-3---2--2-2-2--2-2-----3-------3-2-

Riff 7

D -------------------------------------------------------------------------------------------------
A -------------------------------------------------------------------------------------------------
F -------------------------------------------------------------------------------------------------
C ----------33-22-22----00-11-11-11-11-11-11-11-11----------33-22-22-------------------------------
G -00-00-00----------00----------------------------00-00-00----------33-22-33-33-------00-00-00-00-
D -------------------------------------------------------------------------------33-33-------------

Riff 8

D -----------------------------------------------------------------------------
A -----------------------------------------------------------------------------
F -4-------------5--4-4-------------5--4-4-------------5--4-4-------------5--4-
C -4-------------5--4-4-------------5--4-4-------------5--4-4-------------5--4-
G -2-22-22-22-22-3--2-2-22-22-22-22-3--2-2-22-22-22-22-3--2-2-22-22-22-22-3--2-
D -----------------------------------------------------------------------------

D -----------------------------------------------------------------------------
A -----------------------------------------------------------------------------
F ---------------5------------------5------------------5------------------5----
C ---------------5------------------5------------------5------------------5----
G -00-00-00-00-0-3--0-00-00-00-00-0-3--0-00-00-00-00-0-3--0-00-00-00-00-0-3--0-
D -----------------------------------------------------------------------------

Riff 9

D ---------------------
A ---------------------
F ---------------------
C -----n5--------------
G ----------n5---------
D -0-------------n5--0-

Riff 10

D -------------------------------------------------------
A -------------------------------------------------------
F -9-----10-----9-----12-10---9-----10-----9-----12-10---
C -9-----10-----9-----12-10---9-----10-----9-----12-10---
G -7-----8 -----7-----10-8 ---7-----8 -----7-----10-8 ---
D ---0-0----0-0---0-0-------0---0-0----0-0---0-0-------0-

Outro

D --- -----------------------------------
A --- -----------------------------------
F --- -3t2---------------2-2-2-2-2-2-14--
C --- ------3t2--5-3-2---2-2-2-2-2-2-14--
G --- -----------------3-0-0-0-0-0-0-12--
D -0- -----------------------------------
			 |-3-| |-3-|

Order

Intro x 1
Riff 1 x 3
Riff 1A x 1
Riff 1 x 4
Riff 2 x 4
Riff 3 x 4
Riff 3A x 4 
Riff 3 x 4
Riff 4 x 4
Riff 5 x 2
Riff 1 x 3
Riff 1B x 1
Riff 1 x 4
Riff 2 x 4
Solo over Riff 2A x 3
Solo over Riff 2/2A x 1
Riff 6 x 4
Riff 7 x 4
Solo over Riff 8 x 4
Riff 9 x 8
Riff 10 x 4
Riff 4 x 4
Riff 5 x 2
Outro x 1





Comments


Popular Kreator tabs & chords
Enemy Of God Bass Tabs
Winter Martyrium Bass Tabs
Agents Of Brutality (Solo) Tabs
Bonebreaker Tabs
Celestial Deliverance Tabs
Extreme Aggression 1 Tabs
Flag Of Hate 1 Tabs
Pandemonium Tabs
Some Pain Will Last 1 Tabs
Terror Zone 1 Tabs


Song lyrics



↑ Back to top | Tablatures and chords are parodies/interpretations of the original songs. You may use it for private study, scholarship, research or language learning purposes only
© 2014 AZChords.com Contact us | Privacy policy | DMCA | Add/correct tabs | Request tabs | Top 50 tabs