>
 >
Reconquering The Throne

Reconquering The Throne Guitar Tabs

Kreator - Reconquering The Throne chords, tabs, tablatures, lyrics

Guitar lessons | Add/correct | Request | Top 50 tabs Artists:  A B C D E F G H I J K L M N O P Q R S T U V W X Y Z 0-9

Reconquering The Throne Guitar Tabs – Kreator

CD, Sheet music, Poster

Do you like Reconquering The Throne? Share with your friends now
Tabs
KREATOR - RECONQUERING THE THRONE
(Violent Revolution, 2001)

Key
= after note = vibrato
^ after note = heavy vibrato 
\ = slide down
/ = slide up
+ = tap
h = hammer
p = pull
n = natural harmonic
s = pinching harmonic (squeal)
* = tremolo pick
t = trill
b = bend
|-3-| = triplet

n number above the tab = play the first part then the first finishing part
			 play the first part a second time and then play the second finishing part
			 etc.

Tune Down 1 Step

Fill 1

D -------------------
A -------------------
F -------4--------7--
C -------4--------7--
G -22-22-2--55-55-5--
D -------------------

Riff 1

D -----------------------------------------------------------------------------------
A -----------------------------------------------------------------------------------
F -----------------------------------------------------------------------------------
C -----------------------------------------------------------------------------------
G -----------------------------------------------------------------------------------
D -7-00-00-6-00-00-6-00-00-6-00-00-6-00-5-6-7-00-00-6-00-00-6-00-00-6-00-00-6-00-5-6-

D ---------------------------------------------------------------------------------
A ---------------------------------------------------------------------------------
F ---------------------------------------------------------------------4--------7--
C ---------------------------------------------------------------------4--------7--
G ---------------------------------------------------------------22-22-2--55-55-5--
D -7-00-00-6-00-00-6-00-00-6-00-00-6-00-5-6-7-00-00-6-00-00-6-00-------------------

Riff 1A

D -----------------------------------------------------------------------------------
A -----------------------------------------------------------------------------------
F -----------------------------------------------------------------------------------
C -----------------------------------------------------------------------------------
G -----------------------------------------------------------------------------------
D -7-00-00-6-00-00-6-00-00-6-00-00-6-00-5-6-7-00-00-6-00-00-6-00-00-6-00-00-6-00-5-6-

D ----------------------------------------------------------------------------------------------------
A ----------------------------------------------------------------------------------------------------
F ---------------------------------------------------------------------4--------7---------------------
C ---------------------------------------------------------------------4--------7--5------------4--7--
G ---------------------------------------------------------------22-22-2--55-55-5--5------------4--7--
D -7-00-00-6-00-00-6-00-00-6-00-00-6-00-5-6-7-00-00-6-00-00-6-00-------------------3------------2--5--

Riff 1B

D -----------------------------------------------------------------------------------
A -----------------------------------------------------------------------------------
F -----------------------------------------------------------------------------------
C -----------------------------------------------------------------------------------
G -7-------6-------6-------6-------6----5-6-7-------6-------6-------6-------6----5-6-
D ---00-00---00-00---00-00---00-00---00-------00-00---00-00---00-00---00-00---00-----

D ----------------------------------------------------------------------------------------------------
A ----------------------------------------------------------------------------------------------------
F ---------------------------------------------------------------------4--------7---------------------
C ---------------------------------------------------------------------4--------7--5------------4--7--
G -7-------6-------6-------6-------6----5-6-7-------6-------6----22-22-2--55-55-5--5------------4--7--
D ---00-00---00-00---00-00---00-00---00-------00-00---00-00---00-------------------3------------2--5--

Riff 1C

D ---------------------------------------------------------------------------------
A ---------------------------------------------------------------------------------
F ---------------------------------------------------------------------4--------7--
C ---------------------------------------------------------------------4--------7--
G ---------------------------------------------------------------22-22-2--55-55-5--
D -7-00-00-6-00-00-6-00-00-6-00-00-6-00-5-6-7-00-00-6-00-00-6-00-------------------

Riff 1D

D ---------------------------------------------------------------------------------
A ---------------------------------------------------------------------------------
F ---------------------------------------------------------------------4--------7--
C ---------------------------------------------------------------------4--------7--
G -7-------6-------6-------6-------6----5-6-7-------6-------6----22-22-2--55-55-5--
D ---00-00---00-00---00-00---00-00---00-------00-00---00-00---00-------------------

Riff 2

D -----------------------------------------------------------------------------------
A -----------------------------------------------------------------------------------
F -----------------------------------------------------------------------------------
C -----------------------------------------------------------------------------------
G -----------------------------------------------------------------------------------
D -7-00-00-6-00-00-6-00-00-6-00-00-6-00-5-6-7-00-00-6-00-00-6-00-00-6-00-00-6-00-5-6-

D -----------------------------------------------------------------------------------
A -----------------------------------------------------------------------------------
F -----------------------------------------------------------------------4--------7--
C -----------------------------------------------------------------------4--------7--
G ---------10-------10-------9-------7----7-9----------------------22-22-2--55-55-5--
D -8-88-88----88-88----88-88---88-88---88-----7-00-00-6-00-00-6-00-------------------

Riff 3

D -----------------------------------------------------------------------------------------------
A -----------------------------------------------------------------------------------------------
F -------------7-7-7-7-7-7-5-5-5-5-5-5-4-4-4-2--0-------------4-4-4-4-4-4-5-5-5-5-5-5-4-4-4------
C -5-5-5-5-5-5------------------------------------2-2-2-2-2-2-------------------------------7--4-
G -----------------------------------------------------------------------------------------------
D -----------------------------------------------------------------------------------------------

Riff 4

D ---------------------------------------
A ---------------------------------------
F ---------------------------------------
C -5------------4--7--9------------4--5--
G -5------------4--7--9------------4--5--
D -3------------2--5--7------------2--3--

Riff 5

D ----------------------------------------------0----------------------------------------
A ----------------------------------------------0----------------------------------------
F ---------------------------------------------------------------------------------------
C -2-------------4---5---5-5----7---5---7--9--------------4---5---5-5----7---5---7--9----
G -2-------------4---5---5-5----7---5---7--9----2---------4---5---5-5----5---3---5--7----
D -0-------------2---3---3-3----5---3---5--7----0---------2---3---3-3----5---3---5--7----

Riff 5A

D -0--------------------------------------------0----------------------------------------
A -0--------------------------------------------0----------------------------------------
F ---------------------------------------------------------------------------------------
C ---------------4---5---5-5----7---5---7--9--------------4---5---5-5----7---5---7--5----
G -2-------------4---5---5-5----7---5---7--9----2---------4---5---5-5----5---3---5--5----
D -0-------------2---3---3-3----5---3---5--7----0---------2---3---3-3----5---3---5--3----

Riff 5B

D -0--------------------------------------------0----------------------------------------
A -0--------------------------------------------0----------------------------------------
F ---------------------------------------------------------------------------------------
C ---------------4---5---5-5----7---5---7--9--------------4---5---5-5----7---5---7--9----
G -2-------------4---5---5-5----7---5---7--9----2---------4---5---5-5----5---3---5--7----
D -0-------------2---3---3-3----5---3---5--7----0---------2---3---3-3----5---3---5--7----

Riff 6

D -----------------------------------------------------------------------
A -----------------------------------------------------------------------
F -4-----------------5-----------------7-----------------5-------2-2-2-2-
C -4-----------------5-----------------7-----------------5-------2-2-2-2-
G -2-----------------3-----------------5-----------------3-------0-0-0-0-
D ---0-0-0-0-0-00-00---0-0-0-0-0-00-00---0-0-0-0-0-00-00---0-0-0---------

Riff 7

D ----------------------------------------------------------------------
A ----------------------------------------------------------------------
F -7-9-9-9-9------5-7-7-7-7------4-5-5-5-5------10-12-12-12-12-14-14-14-
C ----------------------------------------------------------------------
G -5-7-7-7-7------3-5-5-5-5------2-3-3-3-3------9 -10-10-10-10-12-12-12-
D ------------0-0------------0-0------------0-0-------------------------

Riff 7A

D -----------------------------------------------------------------------
A -----------------------------------------------------------------------
F -11-12-12-12-12------9-11-11-11-11------7-9-9-9-9------4-5-5-5-5-7-7-7-
C -----------------------------------------------------------------------
G -9 -10-10-10-10------7-9 -9 -9 -9 ------5-7-7-7-7------2-3-3-3-3-5-5-5-
D -----------------0-0----------------0-0------------0-0-----------------

Riff 7B

D ----------------------------------------------------------------------
A ----------------------------------------------------------------------
F -5-7-7-7-7------7-9-9-9-9------9-11-11-11-11-------11-12-12--12-11-7--
C ----------------------------------------------------------------------
G -3-5-5-5-5------5-7-7-7-7------7-9 -9 -9 -9 -------9 -10-10--10-9 -5--
D ------------0-0------------0-0----------------0-0---------------------

Riff 7C

D --------------------------------------------------------------------------
A --------------------------------------------------------------------------
F --------------------------------------------------------------------------
C -7-9-9-9-9------9-10-10-10-10------10-12-12-12-12------10-12-12--12-10-7--
G --------------------------------------------------------------------------
D -5-7-7-7-7--0-0-7-8 -8 -8 -8 --0-0-8 -10-10-10-10--0-0-8 -10-10--10-8 -5--

Riff 8

D ------------------------------------------------------------------------------------------------------
A ------------------------------------------------------------------------------------------------------
F -----------------9------------------------7------------------------9------------------------4----7----
C ---5-4-5-7-5-4-5-9----------5-4-5-7-5-4-5-7----------5-4-5-7-5-4-5-9----------5-4-5-7-5-4-5-4----7----
G -3---------------7--------3---------------5--------3---------------7--------3---------------2----5----
D ------------------------------------------------------------------------------------------------------

Riff 8A

D ------------------------------------------------------------------------------------------------------
A ------------------------------------------------------------------------------------------------------
F ---7-5-7-9-7-5-7-9----------7-5-7-9-7-5-7-7----------7-5-7-9-7-5-7-9----------7-5-7-9-7-5-7-4----7----
C -----------------9------------------------7------------------------9------------------------4----7----
G -3---------------7--------3---------------5--------3---------------7--------3---------------2----5----
D ------------------------------------------------------------------------------------------------------

Riff 9

D ---------------------------------------------------------------------------
A ---------------------------------------------------------------------------
F ---------------------------------------------------------------------------
C -2--------5---4---5--8----------------2--------5---4---5--3----------------
G -2--------5---4---5--8----------------2--------5---4---5--3----------------
D -0--------3---2---3--6----------------0--------3---2---3--1----------------

D ----------------------------------------------------------------------------
A ----------------------------------------------------------------------------
F ----------------------------------------------------------5-----------------
C -2--------5---4---5--8----------------2--------5---4---5--5-----------------
G -2--------5---4---5--8----------------2--------5---4---5--3--------5--------
D -0--------3---2---3--6----------------0--------3---2---3--------------------

Riff 9A

D ---------------------------------------------------------------------------------
A -0--------1---0---1--3--------1---0---1--3--------1---0---1--0--------1---0---1--
F ---------------------------------------------------------------------------------
C ---------------------------------------------------------------------------------
G ---------------------------------------------------------------------------------
D ---------------------------------------------------------------------------------

D --------------------------------------------------1---0---1--3--------5--------
A -0--------1---0---1--3--------1---0---1--3-------------------------------------
F -------------------------------------------------------------------------------
C -------------------------------------------------------------------------------
G -------------------------------------------------------------------------------
D -------------------------------------------------------------------------------

Riff 10

D -----------------------------------------------------------------------------
A -----------------------------------------------------------------------------
F -----------------------------------------------------------------------------
C -5--------7---5---3--2----------------5--------7---5---7--3--------------5---
G -5--------7---5---3--2----------------5--------7---5---7--3--------------5---
D -3--------5---3---1--0----------------3--------5---3---5--1------------0-3---

D ----------------------------------------------------------------------------
A ----------------------------------------------------------------------------
F ----------------------------------------------------------5--------7--------
C -5--------7---5---3--2----------------5--------7---5---7--5--------7--------
G -5--------7---5---3--2----------------5--------7---5---7--3--------5--------
D -3--------5---3---1--0----------------3--------5---3---5--------------------

Riff 10A

D ----------------------------------------------------------------------------
A ----------------------------------------------------------------------------
F ---------------------7-9-9-9-9-10-10-10-10-13-13-13-13-12-------------------
C -5--------7---5---3---------------------------------------------------------
G -5--------7---5---3--5-7-7-7-7-8 -8 -8 -8 -11-11-11-11-10-------------------
D -3--------5---3---1---------------------------------------------------------

D ------------------------------------------------------------------
A ------------------------------------------------------------------
F -17-16-16-16-16-14-14-14-14-13-13-13-13-10-10-10-9----------------
C ------------------------------------------------------------------
G -15-14-14-14-14-12-12-12-12-11-11-11-11-8 -8 -8 -7----------------
D ------------------------------------------------------------------

D --------------------------------------------------------------------------------------------------------
A --------------------------------------------------------------------------------------------------------
F -7-9-9-9-9-10-10-10-10-13-13-13-13-12-------------------17-16-16-16-16-14-14-14-14-13-13-13-13-10-10-10-
C --------------------------------------------------------------------------------------------------------
G -5-7-7-7-7-8 -8 -8 -8 -11-11-11-11-10-------------------15-14-14-14-14-12-12-12-12-11-11-11-11-8 -8 -8 -
D --------------------------------------------------------------------------------------------------------

Fill 2 

D ---
A ---
F ---
C -2-
G -2-
D -0-

Order

Fill 1 x 1
Riff 1 x 1
Riff 1A/1B x 1
Riff 2 x 2
Riff 3 x 3
Riff 4 x 1
Riff 1C/1D x 1
Riff 2 x 2
Riff 3 x 3
Riff 4 x 1
Riff 5 x 1
Riff 5A x 1
Riff 6 x 2
Riff 7/7A x 2
Riff 7B/7C x 2
Riff 8/8A x 1
Riff 9/9A x 1
Solo over Riff 10/10A x 1
Riff 8/8A x 1
Riff 5 x 1
Riff 5B x 1
Riff 1 x 1
Riff 1C/1D x 1
Fill 2 x 1





Comments


Popular Kreator tabs & chords
Agents Of Brutality (Solo) Tabs
All Of The Same Blood Tabs
Awakening The Gods Tabs
Bone Breaker Tabs
Celestial Deliverance Tabs
Command Of The Blade Tabs
Mental Slavery Tabs
Phobia 2 Tabs
The Patriarch 1 Tabs
When The Sun Burns Red Tabs


Song lyrics



↑ Back to top | Tablatures and chords are parodies/interpretations of the original songs. You may use it for private study, scholarship, research or language learning purposes only
© 2014 AZChords.com Contact us | Privacy policy | DMCA | Add/correct tabs | Request tabs | Top 50 tabs