>
 >
Living In Fear

Living In Fear Guitar Tabs

Kreator - Living In Fear chords, tabs, tablatures, lyrics

Guitar lessons | Add/correct | Request | Top 50 tabs Artists:  A B C D E F G H I J K L M N O P Q R S T U V W X Y Z 0-9

Living In Fear Guitar Tabs – Kreator

CD, Sheet music, Poster

Do you like Living In Fear? Share with your friends now
Tabs
Living In Fear 


A-----7h8-----6h7-----4h5-----3h4-----7h8-----6h7-----4h5--
E-0-0-----0-0-----0-0-----0-0-----0-0-----0-0-----0-0------
cont'd below

D-----10---
A------8---
E-0-0------

Riff 2 twice (Sorry but I don't have the time or ability to figure out
Mille's tapping thing. But here are the chords.)

D----------------5-4--------
A-2-2--2-2--2-2--3-2--5-4---
E-0-0--0-0--0-0-------3-2---

Riff 3 4x

D-9-----9-----9-----10-10-10-9-----9-----9-----12-12-12-----
A-7-777-7-777-7-777--8--8--8-7-777-7-777-7-777-10-10-10-----
cont'd below

D-9-----9-----9-----10-10-10-9-----9------7-7-7--5-5-5---
A-7-777-7-777-7-777--8--8--8-7-777-7-777--5-5-5--3-3-3---

Riff 4 twice

D-2-----4-----5------------2-----4-----5------7-7-7---
A-0-000-2-222-3-333-3-3-3--0-000-2-222-3-333--5-5-5---
E-------------------1-1-1-----------------------------

Riff 3 3x
Riff 4 twice

Riff 5 twice

D-9---7--
A-7---5-- (let these chords ring a little bit)

Riff 5 extended twice

D-9-9--7-7--4----------5-----------
A-7-7--5-5--2-2222222--3-3333333---

Riff 3 twice
Riff 5 extended 4x
Then play riff 3 one more time & end w/ a quick E5 chord.





Comments


Popular Kreator tabs & chords
Black Sunrise Bass Tabs
Endorama Bass Tabs
Riot Of Violence Bass Tabs
Under The Guillotine Bass Tabs
As The World Burns Tabs
Carrion Tabs
No Escape Tabs
Phobia 3 Tabs
Ripping Corpse Tabs
Violent Revolution 1 Tabs


Song lyrics



↑ Back to top | Tablatures and chords are parodies/interpretations of the original songs. You may use it for private study, scholarship, research or language learning purposes only
© 2014 AZChords.com Contact us | Privacy policy | DMCA | Add/correct tabs | Request tabs | Top 50 tabs