>
 >
Inferno

Inferno Guitar Tabs

Kreator - Inferno chords, tabs, tablatures, lyrics

Guitar lessons | Add/correct | Request | Top 50 tabs Artists:  A B C D E F G H I J K L M N O P Q R S T U V W X Y Z 0-9

Inferno Guitar Tabs – Kreator

CD, Sheet music, Poster

Do you like Inferno? Share with your friends now
Tabs
.  - palm mute           /  - slide up to
\  - slide down to       ~  - vibrato
h  - hammer on           b  - Bend
p  - pull off            Suffixes for bend
t  - tap                 f  - full bend    h - half bend
ph - pinched harmonic    q  - quarter bend t - tap bend
*  - see comment         ^  - Hold bend    r release bend
x  - Stuccatto           ~  - vibrato bend
,  - slight palm mute    () - ghost note, sustained note
"  - tremolo note         - Trill

Tunning D G C F A D
 

 Intro


           ~~~~~~~~           ~~~  h
E------------------------------------|
B------------------------------------|
G------------------------------------|
D----------9----------------9p7--7-9-|
A---7-10p7-----------7-10p7----------|
E-0----------------0-----------------|

  Guitar 1
                        Pick scrape
E[-----------------------------------|
B[-----------------------------------|
G[-----------------------------------|
D[---------------------------\-\-----|
A[----------------------------\-\----|
E[-----------------------------------|
 [Guitar 2
 [          ~~~~~~~           ~~~  h
E[-----------------------------------|
B[-----------------------------------|
G[-----------------------------------|
D[----------9---------------9p7--7-9-|
A[---7-10p7----------7-10p7----------|
E[-0---------------0-----------------|

 Main Riff


  Guitar 1
    [-----PM------]  [------PM------]
E[-----------------------------------|
B[-----------------------------------|
G[-----------------------------------|
D[-2----------------7----------------|
A[-2----------------55555555555557/9-|
E[-0000000000000000--------------5/7-|
 [
 [Guitar 2
 [          ~~~~~~~           ~~~  h
E[-----------------------------------|
B[-----------------------------------|
G[-----------------------------------|
D[----------9---------------9p7--7-9-|
A[---7-10p7----------7-10p7----------|
E[-0---------------0-----------------| Rpt

 
 Verse

E--------------------------------------------|
B----------------------3--------(3)----------|
G----------------------2--------(2)----------|
D-2--------(2)---------0--------(0)-----2-4--|
A-2--------(2)--------------------------0-2--|
E-0--------(0)-------------------------------| Rpt

 Bridge
                                           [PM]
E-----------------------------------------------|
B-----------------------------------------------|
G-----------------------------------------------|
D/5-5--(5)--5-5--(5)-\4-4--(4)--4-4--(4)--4---4-|
A/3-3--(3)--3-3--(3)-\2-2--(2)--2-2--(2)--2p0-2-|
E-----------------------------------------------|

                                [--PM--]                                           
E---------------------------------------|
B---------------------------------------|
G---------------------------------------|
D/5-5--(5)--5-5--(5)-\4-4--(4)--222-----|
A/3-3--(3)--3-3--(3)-\2-2--(2)--000-333-|
E-----------------------------------111-|

 Rpt Main Riff 2 X for chorus.
 Rpt Verse, Bridge and Chorus.

 [----------PM-----------]
E--------------------------|
B--------------------------|
G--------------------------|
D-555555555555555555555555-|
A-333333333333333333333333-|
E--------------------------|

E-------------------------------------------|
B-------------------------------------------|
G-------------------------------------------|
D-2--------(2)--------7--------(7)----------|
A-2--------(2)--------5--------(5)----------|
E-0--------(0)------------------------------|

                 Fade out to bass and drums
E-------------------------------------------|
B-------------------------------------------|
G-------------------------------------------|
D-2--------(2)------------------------------|
A-2--------(2)------------------------------|
E-0--------(0)------------------------------|

  Fade in.
E-------------------------------------------|
B-------------------------------------------|
G-------------------------------------------|
D-2--------(2)--------7--------(7)----------|
A-2--------(2)--------5--------(5)----------|
E-0--------(0)------------------------------|

 Rpt Chorus 2 X

 [----------PM-----------]
E--------------------------|
B--------------------------|
G--------------------------|
D-555555555555555555555555-|
A-333333333333333333333333-|
E--------------------------|

  Guitar 1
   
E[-----------------------------------|
B[-----------------------------------|
G[-----------------------------------|
D[-2-2----(2)------7-7----(7)--------|
A[-2-2----(2)------5-5----(5)----7/7-|
E[-0-0----(0)--------------------5/7-|
 [
 [Guitar 2
 [          ~~~~~             ~~~  h
E[-----------------------------------|
B[-----------------------------------|
G[-----------------------------------|
D[----------9---------------9p7--7-9-|
A[---7-10p7----------7-10p7----------|
E[-0---------------0-----------------| Rpt


E-------------------------------------------------------------------|
B-------------------------------------------------------------------|
G-9--------------------------(9)------------------------------------|
D-9--------------------------(9)------------------------------------|
A-7--------------------------(7)------------------------------------|
E-------------------------------------------------------------------|




END





Comments


Popular Kreator tabs & chords
Mental Slavery 2 Bass Tabs
No Escape Bass Tabs
Phobia Bass Tabs
Winter Martyrium Bass Tabs
Death To The World Tabs
Dying Victims Tabs
Fatal Energy Tabs
People Of The Lie 4 Tabs
Riot Of Violence Tabs
Storm Of The Beast Tabs


Song lyrics



↑ Back to top | Tablatures and chords are parodies/interpretations of the original songs. You may use it for private study, scholarship, research or language learning purposes only
© 2014 AZChords.com Contact us | Privacy policy | DMCA | Add/correct tabs | Request tabs | Top 50 tabs