>
 >
Hidden Dictator

Hidden Dictator Guitar Tabs

Kreator - Hidden Dictator chords, tabs, tablatures, lyrics

Guitar lessons | Add/correct | Request | Top 50 tabs Artists:  A B C D E F G H I J K L M N O P Q R S T U V W X Y Z 0-9

Hidden Dictator Guitar Tabs – Kreator

CD, Sheet music, Poster

Do you like Hidden Dictator? Share with your friends now
Tabs
KREATOR - HIDDEN DICTATOR
(Coma Of Souls, 1990)

Key
= after note = vibrato
^ after note = heavy vibrato 
\ = slide down
/ = slide up
+ = tap
h = hammer
p = pull
n = natural harmonic
s = pinching harmonic (squeal)
* = tremolo pick
t = trill
b = bend
|-3-| = triplet

n number above the tab = play the first part then the first finishing part
			 play the first part a second time and then play the second finishing part
			 etc.

Fill 1

E ---------
B ---------
G ---------
D ---------
A -6--6--6-
E -4--3--4-

Riff 1

E -----------------------------------------
B -----------------------------------------
G -7-----------6--8-10-7-------------------
D -7-----------6--8-10-7-------------------
A -5-----------4--6-8 -5-----------6--6--6-
E ---------------------------------4--3--4-

Riff 1A

E ------------------------------------------
B ------------------------------------------
G -10-----------6--8-10-7-------------------
D -10-----------6--8-10-7-------------------
A -8 -----------4--6-8 -5-----------6--6--6-
E ----------------------------------4--3--4-

Riff 2

E ------------------------------------------------------------------------------
B ------------------------------------------------------------------------------
G --------------------------------------4-------------------5-------------7--3--
D -2-------------------2----------------4--3----------------5--5----------7--3--
A -2----------------2--2----------------2--3----------------3--5----------5--1--
E -0-00-00-00-00-00-3--0-00-00-00-00-00----1-11-11-11-11-11----3-33-33-33-------

Riff 3

E -------------------------------------------------------------------------------
B -------------------------------------------------------------------------------
G ----------------5---4----------------------------------------------------------
D ----------------5---4--------------4--3----------3---5---2----------2----------
A -3----------3---3---2--2-2-2-2-2---4--3----------3---5---2----------2----------
E -4--4-4-4-4-4----------------------2--1--1-1-1-1-1---3---0--0-0-0-0-0--0-0-0-0-

E ---------------------------------------------------------
B ---------------------------------------------------------
G ----------------5---4------------------------------------
D ----------------5---4--------------4--3----------3---5---
A -3----------3---3---2--2-2-2-2-2---4--3----------3---5---
E -4--4-4-4-4-4----------------------2--1--1-1-1-1-1---3---

Riff 4

E -------------------------------------------------------------------------
B -------------------------------------------------------------------------
G -------------------------------------------------------------------------
D ----------------------------------------------------------------------3--
A ---------------------------------------0-0-00-00-0-0-00-00-2-2-22-3-2-3--
E -0-0-00-00-0-0-00-00-2-2-22-22-3-2-0-3--------------------------------1--

Riff 5

E ----------------------------------------------------------------------------
B ----------------------------------------------------------------------------
G -------------------------------------------------------------------------5--
D -------------------------------------------------------------------------5--
A -2-2-22-22-2-2-22-22-3-3-33-33-5-3-0-2-----------------------------------3--
E ---------------------------------------1-1-11-11-1-1-11-11-0-0-00-00-1-0----

E ------------------------------------------------------------------
B ------------------------------------------------------------------
G ------------------------------------------------------------------
D ---------------------------------------3------3------3---------2--
A -2-2-22-22-2-2-22-22-3-3-33-33-5-3-0-2-3------3------1------2--2--
E ---------------------------------------1--1-1-1--0-0----0-0-2-----

Riff 6

E -------------------------------------------------------
B -------------------------------------------------------
G -------------------------------------------------------
D -5------2------2---------2--0------2------2---------2--
A -5------2------2------2--2--0------2------2------2--2--
E ----0-0-0--0-0-0--0-0-2--------0-0-0--0-0-0--0-0-2-----

Riff 7

E -------------------------------------------------------------------------------------
B -------------------------------------------------------------------------------------
G -------------------------------------------------------------------------------------
D -3------3------3---------0-2-6------6------6---------0-2-6------6------3------3------
A -3------3------3------3------6------6------6------3------6------6------3------3------
E -1--1-1-1--1-1-1--1-1--------4--4-4-4--4-4-4--4-4--------4--4-4-4--4-0-1--1-1-1--1-1-

Riff 8

E ------------------------------
B ------------------------------
G ------------------------------
D -2------2------------------3--
A -2------2--------------1-3-3--
E -0--0-0-0--0-0-1-3-1-3-----1--

Riff 9

E --------------------------------------
B --------------------------------------
G -------------------3--------0---------
D -2--------3--------3--------1----6----
A -2--------3--------1--------3----6----
E -0--------1----------------------4----

Riff 9A

E ---------------------------------------------------
B ---------------------------------------------------
G ------------------0-2-----3---3-2---1--5---6-5-----
D -2---3-2-0----3--------3--3-------3----5--------6--
A -2---------3--3-----------1------------3-----------
E -0------------1------------------------------------

Riff 9B

E ------------------------------6-5---4--------------
B ------------------3-5-------------6--------9-8-----
G -----5-4-2-0-----------5--3------------5--------8--
D -2------------3-----------3------------5-----------
A -2------------3-----------1------------3-----------
E -0------------1------------------------------------

Riff 10

E -------------------------------------------------------
B -------------------------------------------------------
G -------------------------------------------------------
D -5------5------7------7--3--5------2------2------2--3--
A -5------5------7------7--3--5------2------2------2--3--
E -3--3-3-3--3-3-5--5-5-5--1--3--0-0-0--0-0-0--0-0-0--1--

Riff 10A

E -----------------------------------------------------------------------------------
B -----------------------------------------------------------------------------------
G -----------------------------------------------------------------------------------
D -5------5------7------7------5------5--3--2------2------5------5------7------7--3--
A -5------5------7------7------3--3-3-3--3--2------2------5------5------7------7--3--
E -3--3-3-3--3-3-5--5-5-5--5-5-----------1--0--0-0-0--0-0-3--3-3-3--3-3-5--5-5-5--1--

Riff 11

E ------------------------------------------------------------------
B ------------------------------------------------------------------
G -----------------------------------------------------1------------
D ---6-5-4-------------6-------4-----6-5-4-----------0---0-----4t5--
A ---------6-5-0-2---5-------3---3---------6-5-0-3-2---------3------
E -0---------------0-----0-4-------0-----------------------0--------

Riff 11A

E -------------------------------------------------
B -------------------------------------------------
G -------------------------------------------------
D ---6-5-4-------------6-------4-----6-5-4---------
A ---------6-5-0-3---5-------3---3---------6-5-0-3-
E -0---------------0-----0-0-------0---------------

Fill 2

E ------------------------------------------------------------------------------------------
B -6-5-3---5-3-----3------------------------------------------------------------------------
G -------5-----5-4---5-4-2-5-4-2-1-4-2-1---2-1-----1----------------------------------------
D ---------------------------------------3-----3-2---3-2-0-3-2-0---2-0-------------2--------
A ---------------------------------------------------------------3-----3-2-5-3-2-0-2--------
E ---------------------------------------------------------------------------------0--------

Fill 2A

E ------------------------------------------------------------------------------------------
B ------------------------------------------------------------------------------------------
G -5-4-2-0-4-2-0---2-0----------------------------------------------------------------------
D ---------------4-----4-2-5-4-2-0-4-2-0---2-0-------------------------------------2--------
A ---------------------------------------3-----3-2-5-3-2-0-3-2-0-------------------2--------
E ---------------------------------------------------------------3-0-3-2-0-5-3-2-3-0--------

Riff 12

E -----------------------------------------------------------------------------------
B -----------------------------------------------------------------------------------
G -6---------6---------6---------------------6---------6---------6-------------------
D -6---------6---------6---------7-7-6-------6---------6---------6-------------------
A -4---4-4-4-4---4-4-4-4---4-4-4-------7-7-5-4---4-4-4-4---4-4-4-4---4-4-4-------5---
E -------------------------------------------------------------------------3-3-3-----

Riff 12A

E ---------------------------------------------------------------------------------------
B ---------------------------------------------------------------------------------------
G -9---------9---------9-------------------------9---------9---------9-------------------
D -9---------9---------9---------10-10-9---------9---------9---------9-------------------
A -7---7-7-7-7---7-7-7-7---7-7-7---------10-10-8-7---7-7-7-7---7-7-7-7---7-7-7-------8---
E -----------------------------------------------------------------------------7-7-0-----

Riff 12B

E ---------------------------------------------------------------------------------
B ---------------------------------------------------------------------------------
G -6---------6---------6---------------------6---------6---------6-----------------
D -6---------6---------6---------7-7-6-------6---------6---------6---------5---4---
A -4---4-4-4-4---4-4-4-4---4-4-4-------7-7-5-4---4-4-4-4---4-4-4-4---4-4-4-5---4---
E -------------------------------------------------------------------------3---2---

Fill 3

E ----------------------------
B ----------------------------
G ----------------------------
D -2------2------2---------2--
A -2------2------2------2--2--
E -0--0-0-0--0-0-0--0-0-2-----

Fill 4

E --- ----------------
B --- ----------------
G --- ----------------
D -2- ----------------
A -2- ---------1-3----
E -0- -1-3-1-3-----1--

Order

Fill 1 x 1
Riff 1 x 2
Riff 1/1A x 2
Riff 2 x 4
Riff 3 x 1
Riff 4 x 2
Riff 5 x 1
Riff 6 x 2
Riff 7 x 1
Riff 8 x 2
Solo over Riff 2 x 2
Solo over Riff 3 x 1
Riff 4 x 2
Riff 5 x 1
Riff 6 x 2
Riff 7 x 1
Riff 8 x 2
Riff 9 x 1
Riff 9A/9B x 2
Solo over Riff 10 x 2
Solo over Riff 10A x 1
Riff 11 x 1
Riff 11A x 1
Fill 2/2A x 1
Riff 12 x 2
Riff 12A x 2
Riff 12 x 1
Riff 12B x 1
Fill 3 x 1
Riff 6 x 2
Riff 7 x 1
Riff 8 x 2
Fill 1 x 1
Riff 11 x 2





Comments


Popular Kreator tabs & chords
Black Sunrise Bass Tabs
Voices Of The Dead Intro 2 Bass Tabs
Flag Of Hate 1 Tabs
Pandemonium Tabs
Phobia 2 Tabs
Prevail Tabs
Reconquering The Throne Tabs
Riot Of Violence Tabs
Son Of Evil Tabs
Warcurse Tabs


Song lyrics



↑ Back to top | Tablatures and chords are parodies/interpretations of the original songs. You may use it for private study, scholarship, research or language learning purposes only
© 2014 AZChords.com Contact us | Privacy policy | DMCA | Add/correct tabs | Request tabs | Top 50 tabs