» » »

Kreator, Ghetto War Tabs (ver.1)

Artists:  A B C D E F G H I J K L M N O P Q R S T U V W X Y Z # 

Ghetto War Tabs (ver.1)

Kreator Tabs
 Rating:
4/5 (4 votes)
Ghetto War lessons Tabs too difficult? Try these video lessons and learn fast
                As recorded by Kreator
(from the Album Violent Revolution)

Tune all guitars down 1 step (DGCFAD)

Intro

Guitar One (let ring)
|-----------------------------|
|-----------------------------|
|-----------------------------|
|-2---------------------------|
|-2---------------------------|
|-0---------------------------|

Guitar Two (feedback)
|-----------------------------|
|-----------------------------|
|-----------------------------|
|-----------------------------|
|-----------------------------|
|-----------------------------|

After a little bit Guitar Two starts playing this:
                           (x3)
|--------------------------------|-----------------------------|
|--------------------------------|-----------------------------|
|*------------------------------*|-----------------------------|
|*--2----2----2---2----2h3-2h3--*|------5----5---5-------------|
|---2----2----2---2----2h3-2h3---|-5----5----5---5----5-3------|
|------0----0---0----0-----------|-3--3----3---3----3-3-1------|

Riff 1

Guitar One (# of notes may be slightly off, but patterns are correct)

|---------------------------------|----------------------------------|
|-5-5-5-5--7-7-7--8-8-8-8-8-8-8-8-|-5-5-5-5--7-7-7--8-8-8-10-8-8-7-7-|
|---------------------------------|----------------------------------|
|---------------------------------|----------------------------------|
|---------------------------------|----------------------------------|
|---------------------------------|----------------------------------|

|-------------------------------------|-------------------------------|--------|
|-5-5-5-5--7-7-7--8-8-8-8-10-10-10-10-|-12-12-12-12-10-10-8-8-8-8-8-8-|-5------|
|-------------------------------------|-------------------------------|--------|
|-------------------------------------|-------------------------------|--------|
|-------------------------------------|-------------------------------|--------|
|-------------------------------------|-------------------------------|--------|
                                                                       over next riff
Guitar Two
                           (x3)
|-------------------------------|-------------------------------|
|-------------------------------|-------------------------------|
|*-----------------------------*|-------------------------------|
|*--2----2----2---2---2h3-2h3--*|------5----5---5----5-5--5-5---|
|---2----2----2---2---2h3-2h3---|-5----5----5---5----5-5--5-5---|
|------0----0---0---0-----------|-3--3----3---3----3------------|

Verse Riff is just Guitar Two's part from Riff 1

Chorus:

|-------------------|----------------------------|
|-------------------|----------------------------|
|-------------------|----------------------------|
|-------------------|----------------------------|
|-4---------3-2-----|-4---------3-2--------------|
|-2-2-2-2-2-----2v--|-2-2-2-2-2-----2v--22222222-|
    * * * * PH---|
            
Submit corrections

comments powered by Disqus
↑ Back to top | Kreator Tabs for Ghetto War. Lyrics for acoustic guitar and electric guitar. Tablatures and chords are parodies/interpretations of the original songs. You may use it for private study, scholarship, research or language learning purposes only