>
 >
Fatal Energy

Fatal Energy Guitar Tabs

Kreator - Fatal Energy chords, tabs, tablatures, lyrics

Guitar lessons | Add/correct | Request | Top 50 tabs Artists:  A B C D E F G H I J K L M N O P Q R S T U V W X Y Z 0-9

Fatal Energy Guitar Tabs – Kreator

CD, Sheet music, Poster

Do you like Fatal Energy? Share with your friends now
Tabs
KREATOR - FATAL ENERGY
(Extreme Aggression. 1989)

Key
= after note = vibrato
^ after note = heavy vibrato 
\ = slide down
/ = slide up
+ = tap
h = hammer
p = pull
n = natural harmonic
s = pinching harmonic (squeal)
* = tremolo pick
t = trill
b = bend
|-3-| = triplet

n number above the tab = play the first part then the first finishing part
			 play the first part a second time and then play the second finishing part
			 etc.

Riff 1

E ------------------------------------------------------------------------------------------------------------
B ------------------------------------------------------------------------------------------------------------
G ------9--------------------------4-----5--------3--------------------------4-----5-----------7--------------
D ------9--------------5-----6-----4-----5--2-----3--------------5-----7-----4-----5-----2-----7--------------
A ------7--------------5-----7-----2-----3--2-----1--------------5-----7-----2-----3-----2-----5--------------
E -0---------------0-0-3--0--5--0-----0-----0---0------------0-0-3--0--5--0-----0-----0--0---0------------0-0-

E -------------------------
B -------------------------
G -------------4-----5-----
D -5-----7-----4-----5-----
A -5-----7-----2-----3-----
E -3--0--5--0-----0-----0--

Riff 1A

E ------------------------------------------------------------------------------------------------------------
B ------------------------------------------------------------------------------------------------------------
G ------9--------------------------4-----5--------3--------------------------4-----5-----------7--------------
D ------9--------------5-----6-----4-----5--2-----3--------------5-----7-----4-----5-----2-----7--------------
A ------7--------------5-----7-----2-----3--2-----1--------------5-----7-----2-----3-----2-----5--------------
E -0---------------0-0-3--0--5--0-----0-----0---0------------0-0-3--0--5--0-----0-----0--0---0------------0-0-

E ---------------------------------
B ---------------------------------
G -------------4-----5-----------9-
D -5-----7-----4-----5-----------9-
A -5-----7-----2-----3-----------7-
E -3--0--5--0-----0-----0--0---0---

Riff 2

E ---------------------------------------------------------------
B ---------------------------------------------------------------
G ----------2-5-2-----------2-3------------------------------3---
D ----------2-5-2-----------2-3------------2-3-2-------------3---
A -----------------3-33-3-3----------------2-3-2-------------1---
E -0-00-0-0-----------------------1-11-1-1--------0-0-32-0-0-----

Riff 3

E -------------------------------------------------------------------
B -------------------------------------------------------------------
G -----------------------1--1--1---------------------------1--1------
D -5---------------------1--1--1-----5---------------------1--1------
A ---3-0-0-0-0-0-0-0-2-3---------3-0---3-0-0-0-0-0-0-0-2-3-------3-0-
E -------------------------------------------------------------------

E ----------------------------------------------------------------
B ----------------------------------------------------------------
G -----------------------1--1--1-----------------------4--5--2----
D -5---------------------1--1--1-----5-----------------4--5--2-5--
A ---3-0-0-0-0-0-0-0-2-3---------3-0---3-0-0-0-0-0-0-0-2--3--0-5--
E -------------------------------------------------------------3--

Riff 4

E --------------------------------------------------------------------------------
B --------------------------------------------------------------------------------
G --------------------------------------------------------------------------------
D ----------------------------------5-4--------------------------------------7----
A -4----------4----------4----------5-4---6----------6----------6------------7----
E -2-22-22-22-3-22-22-22-2-22-22-22-------4-44-44-44-5-44-44-44-4-44-44-44-4-5--0-

Riff 5

E --------------------------------------------------------------------------------
B --------------------------------------------------------------------------------
G ----------------------------------5-4--------------------------------------7----
D -4----------4----------4----------5-4---6----------6----------6------------7----
A -2-22-22-22-3-22-22-22-2-22-22-22-------4-44-44-44-5-44-44-44-4-44-44-44-4-5--0-
E --------------------------------------------------------------------------------

E --------------------------------------------------------------------------
B --------------------------------------------------------------------------
G ----------------------------------5-4-------------------------2--4--5-----
D -4----------4----------4----------5-4---6----------6----------2--4--5--3--
A -2-22-22-22-3-22-22-22-2-22-22-22-------4-44-44-44-5-44-44-44-0--2--3--3--
E -----------------------------------------------------------------------1--

Riff 5A

E --------------------------------------------------------------------------------
B --------------------------------------------------------------------------------
G ----------------------------------5-4--------------------------------------7----
D -4----------4----------4----------5-4---6----------6----------6------------7----
A -2-22-22-22-3-22-22-22-2-22-22-22-------4-44-44-44-5-44-44-44-4-44-44-44-4-5--0-
E --------------------------------------------------------------------------------

E ---------------------------------------------------------------------------- -------------------------------
B ---------------------------------------------------------------------------- -------------------------------
G ----------------------------------5-4-------------------------2--4--5------- -----------------4-----5-----9-
D -4----------4----------4----------5-4---6----------6----------2--4--5--3--2- -----5-----7-----4-----5-----9-
A -2-22-22-22-3-22-22-22-2-22-22-22-------4-44-44-44-5-44-44-44-0--2--3--3--2- -----5-----7-----2-----3-----7-
E -----------------------------------------------------------------------1--0- -0-0-3--0--5--0-----0-----0----

Riff 6A

E -----------------------------------------------------------------------------------------
B -----------------------------------------------------------------------------------------
G ----------------4-5--------------------------------------4-5-----------------------------
D -2----2----2----4-5---2----2----2----3----2----2----2----4-5---2----2--------------------
A -2----2----2----2-3---2----2----2----3----2----2----2----2-3---2----2--------------------
E -0----0----0----------0----0----0----1----0----0----0----------0----0----4-4-4-4-3-3-3-0-

Riff 6

E --------------------------------------------------------------------------------------------------------------
B --------------------------------------------------------------------------------------------------------------
G --------------0-------4-5----------------0--------------------------------------------------------------------
D ---------0----0-------4-5-----------0----0-------3------------0----0-------4-5-----------0--------------------
A ----------------------2-3------------------------3-------------------------2-3--------------------------------
E -0-0-0-0----0-----0-0-------0-0-0-0----0-----0-0-1----0-0-0-0----0-----0-0-------0-0-0-0------4-4-4-4-3-3-3-0-

Riff 7

E ---------------------------------------------------------------------------------------
B ---------------------------------------------------------------------------------------
G ---------------------------------------------------------------------------------------
D -2----------2----------2----------2----------4----------4----------4----------5--4--2--
A -2----------2----------2----------2----------4----------4----------4----------5--4--2--
E -0--0-0-0-0-0--0-0-0-0-0--0-0-0-0-0--0-0-0-0-2--2-2-2-2-2--2-2-2-2-2--2-2-2-2-3--2--0--

Fill 1

E ---------------------------------------------------------
B ---------------------------------------------------------
G ---------------------------10------------12------12------
D -8------------7------------10------------12------13------
A -8------------7------------8 ------------10------11------
E -6------------5------------------------------------------

Riff 8

E ---------------------------------------------------
B --------5-------------------------5----------------
G ----5-4------5-4-2--4-5-7-----5-4------5-4-2--2----
D ---------------------------------------------------
A -0-------------------------0-----------------------
E ---------------------------------------------------

Riff 9

E -------------------------------------------------------------------
B ---------10------------------------------10----11-10---------------
G ----10-9-------10-9-----9-10-12-----10-9-------------12-10-12------
D -0------------------12-----------0----------------------------10---
A -------------------------------------------------------------------
E -------------------------------------------------------------------

Riff 9A

E ---------10------------------------------10----13-10---------------
B ----10-8-------10-8-----8-10-11-----10-8-------------15-13-15------
G --------------------10----------------------------------------12---
D -0-------------------------------0---------------------------------
A -------------------------------------------------------------------
E -------------------------------------------------------------------

Order

Riff 1 x 2
Solo over Riff 1A x 1
Riff 2 x 4
Riff 3 x 2
Riff 4 x 2
Riff 5 x 1
Riff 2 x 2
Riff 3 x 2
Riff 4 x 2
Riff 5 x 1
Riff 6/6A x 1
Riff 6 x 2
Solo over Riff 7 x 4
Solo over Fill 1 x 1
Riff 8 x 2
Riff 9/9A x 2
Riff 1A x 1
Riff 2 x 2
Riff 3 x 2
Riff 4 x 2
Riff 5A x 1





Comments


Popular Kreator tabs & chords
Mental Slavery Bass Tabs
Violent Evolution Drum Tabs
Agents Of Brutality (Solo) Tabs
Awakening Of The Gods Tabs
Awakening The Gods 1 Tabs
Bonebreaker Tabs
Civilization Collapse Intro Tabs
Flag Of Hate 1 Tabs
Pandemonium Tabs
Reflection 1 Tabs


Song lyrics



↑ Back to top | Tablatures and chords are parodies/interpretations of the original songs. You may use it for private study, scholarship, research or language learning purposes only
© 2014 AZChords.com Contact us | Privacy policy | DMCA | Add/correct tabs | Request tabs | Top 50 tabs