» » »

Kreator, Extreme Agression Tabs (ver.1)

Artists:  A B C D E F G H I J K L M N O P Q R S T U V W X Y Z # 

Extreme Agression Tabs (ver.1)

Kreator Tabs
Rating:
4/5 (5 votes)
Extreme Agression lessons Tabs too difficult? Try these video lessons and learn fast
                Kreator-Extreme Aggression

Standard Tuning

No real attempt has been made at timing or song structure.

Intro Riff:

(Another guitar harmonizes with this for the first two
repititions.)

|----------------------------------------------------|
|----------------------------------------------------|
|----------------------------------------------------|
|---------1-0-------7---6---------1-0-------7---5----|
|---2-3-------3-2---7---6---2-3-------3-2---7---5----|
|-0-----0---------0-5-0-4-0-----0---------0-5-0-3----|
  .     .         .   .   .     .         .   .

Main Riff:

|------------------------------------------------|
|------------------------------------------------|
|----------2-------------------------------------|
|--4--------------5---4---2---4------------------|
|----22222--22222---2---2---2--------------------|
|------------------------------------------------|
     .....  .....   .   .   .

Cont
|------------------------------------------------|
|------------------------------------------------|
|------------------------------------------------|
|-3-----2-----3---3-----2-----3------------------|
|---111---111---1---111---111---1----------------|
|------------------------------------------------|
    ...   ...   .   ...   ...   .

Cont
|------------------------------------------------|
|------------------------------------------------|
|----------2-------------------------------------|
|--4--------------5---4---2---4------------------|
|----22222--22222---2---2---2--------------------|
|------------------------------------------------|
     .....  .....   .   .   .

Cont
|------------------------------------------------|
|------------------------------------------------|
|----------------7-------------------------------|
|----------------7-------------------------------|
|----------------5-------------------------------|
|-0"-2"-3"-5"-3"---------------------------------|
  .  .  .  .  .


Verse Riff

|------------------------------------------------|
|------------------------------------------------|
|-4----5\4-5-2----8-2-4----5\4-5-2---------------|
|-4----5\4-5-2----8-2-4----5\4-5-2----4-5--------|
|-2-2"-3\2-3-0-0"-6-0-2-2"-3\2-3-0-0"-4-5--------|
|-------------------------------------2-3--------|
    .          .        .          .

(Hit you with violence)
|------------------------------------------------|
|------------------------------------------------|
|------------------------------------------------|
|-----------9-10---------------------------------|
|----545----9-10----545--------------------------|
|-2"-323-5"-7-8--2"-323-1"-0"--------------------|
  .  .   .       .  .   .  .

Bridge Riff

(Not 1001Û¿¿MÛ¿¿]Û¿¿xÛ¿¿—Û¿¿±Û¿¿Ü¿¿KÜ¿¿fÜ¿¿xÜ¿¿ŸÜ¿¿»Ü¿¿ÞÜ¿¿úÜ¿¿        Ý¿¿]Ý¿¿Ý¿¿ŸÝ¿¿¹Ý¿¿ÒÝ¿¿åÝ¿¿óÝ¿¿5Þ¿¿PÞ¿¿‚Þ¿¿ure about this one)

|----------------------------------------------------|
|----------------------------------------------------|
|-----------------------------------------------2-3--|
|---------4-3-----------------------4-3---------2-3--|
|---------------------5p2-----------------------0-1--|
|-2-2-2-2-----3-3-3-3-----3-2-2-2-2-----3-3-3-3------|
  . . . .     . . . .       . . . .

Interlude
|------------------------------------------------|
|------------------------------------------------|
|-------5---4-----------------5-----5------------|
|-2-----5---4-5-4-----4---2-4-5-----5------------|
|-2-----3---2-5-4-----4---2-4-3-3-3-3------------|
|-0-0-0-------3-2-2-2-2---0-2--------------------|
    . .           . .           . .

Cont
|------------------------------------------------|
|------------------------------------------------|
|-4-5-7-----7---5-4------------------------------|
|-4-5-7-----7---5-4------------------------------|
|-2-3-5-5-5-5---3-2------------------------------|
|------------------------------------------------|
        . .

Solo Riff 1:

|------------------------------------------------|
|------------------------------------------------|
|-----------7-8-7-----------4-2------------------|
|-----------7-8-7-----------4-2-5----------------|
|-----------5-6-5-333333333-2-0-5----------------|
|-000000000---------------------3----------------|
  .........       .........


Solo Riff 2:
|------------------------------------------------|
|------------------------------------------------|
|-------------------------------5----------------|
|-----------2-4-5-----------4-2-5----------------|
|-----------2-4-5-----------4-2-3----------------|
|-222222222-0-2-3-333333333-2-0------------------|
  .........       .........

"Society...what have you done to me?"

|------------------------------------------------|
|------------------------------------------------|
|-9-7--------------------------------------------|
|-9-7-3------------------------------------------|
|-7-5-3------------------------------------------|
|-----1-0-000-000-000-00-------------------------|


Outro:

|------------------------------------------------|
|------------------------------------------------|
|----------------7-------------------------------|
|----------------7-------------------------------|
|----------------5-------------------------------|
|-0"-2"-3"-5"-3"---------------------------------|
  .  .  .  .  .

|------------------------------------------------|
|------------------------------------------------|
|------------------------------------------------|
|----------------5-------------------------------|
|-0"-2"-3"-5"-3"---------------------------------|
|------------------------------------------------|
  .  .  .  .  .

|------------------------------------------------|
|------------------------------------------------|
|----------------5-------------------------------|
|-0"-2"-3"-5"-3"---------------------------------|
|------------------------------------------------|
|------------------------------------------------|
  .  .  .  .  .

End on E5 chord
            

comments powered by Disqus
↑ Back to top | Kreator Tabs for Extreme Agression. Lyrics for acoustic guitar and electric guitar. Tablatures and chords are parodies/interpretations of the original songs. You may use it for private study, scholarship, research or language learning purposes only