» » »

Kreator, Enemy Of God Bass tabs (ver.1)

Artists:  A B C D E F G H I J K L M N O P Q R S T U V W X Y Z # 

Enemy Of God Bass tabs (ver.1)

Kreator Tabs
 Rating:
4.3/5 (6 votes)
Enemy Of God lessons Tabs too difficult? Try these video lessons and learn fast
1
                Band: Kreator
Bassist: Christian Giesler
Tuning: D tuning

Intro

F|---------------|
C|---------------| x2
G|-------2-1-----|
D|-6---3-----1-6-|

F|---------------------------|
C|---------------------------|
G|-7h8p7---------------5-----|
D|-------000-3-0-3-2-0---0-6-|
 |
F|-------------------------------|
C|-------------------------------|
G|-7h8p7-----------5-3-0-3-2-0-2-|
D|-------000-3-000---------------|

F|---------------------------|
C|---------------------------|
G|-7h8p7---------------5-----|
D|-------000-3-0-3-2-0---0-6-|
 |
F|-------------------------------|
C|-------------------------------|
G|-7h8p7-------------------------|
D|-------000-3-0-3-3-333-3-3-3-3-|

F|---------------------------|
C|---------------------------|
G|-7h8p7---------------5-----|
D|-------000-3-0-3-2-0---0-6-|
 |
F|-------------------------------|
C|-------------------------------|
G|-7h8p7-----------5-3-0-3-2-0-2-|
D|-------000-3-000---------------|

F|---------------------------|
C|---------------------------|
G|-7h8p7---------------5-----|
D|-------000-3-0-3-2-0---0-6-|
 |
F|---------------------------------|
C|---------------------------------|
G|-7h8p7---------------------------|
D|-------000-3-0-3-3-333-3-3-3-3-0-|

F|---------|
C|---------|
G|-----3-6-|
D|-3-5-----|

Verse 1

F|---------------------------------|
C|---------------------------------|
G|-5-55555-5-55555-5-55555-5-55555-|
D|---------------------------------|

F|-----------------------------------|
C|-----------------------------------|
G|-8------7------8------7------------|
D|---6666---6666---6666---6666-8-6-5-|

F|---------------------------------|
C|---------------------------------|
G|-5-55555-5-55555-5-55555-5-55555-|
D|---------------------------------|

F|-----------------------------------|
C|-----------------------------------|
G|-8------7------8------7----------3-|
D|---6666---6666---6666---6666-3-5---|

F|---------------------------------|
C|---------------------------------|
G|-5-55555-5-55555-5-55555-5-55555-|
D|---------------------------------|

F|-----------------------------------|
C|-----------------------------------|
G|-8------7------8------7------------|
D|---6666---6666---6666---6666-8-6-5-|

F|---------------------------------|
C|---------------------------------|
G|-5-55555-5-55555-5-55555-5-55555-|
D|---------------------------------|

F|-----------------------------------|
C|-----------------------------------|
G|-8------7------8------7----------3-|
D|---6666---6666---6666---6666-3-5---|

F|----------------------------------|
C|----------------------------------|
G|-22222222332233335555555555555555-|
D|----------------------------------|

F|----------------------------------|
C|----------------------------------|
G|-22222222332233337777777777777777-|
D|----------------------------------|

F|----------------------------------|
C|----------------------------------|
G|-22222222332233335555555555555555-|
D|----------------------------------|

F|--------------------------|
C|--------------------------|
G|-2222222233223333-7-5-3-0-|
D|--------------------------|

Chorus

F|-----------------------------------------------------|
C|-----------------------------------------------------|
G|-----------------------------------------------2-1---|
D|-6-0000-3-000-3-000-5-3-0000-5-0000-6-3-0000-3-----1-|

F|--------------------------------------------------------------|
C|--------------------------------------------------------------|
G|---------------------------------55554444----4444-------------|
D|-6-0000-3-000-3-000-5-3-0000-6666--------5555----666633335555-|

F|-----------------------------------------------------|
C|-----------------------------------------------------|
G|-----------------------------------------------2-1---|
D|-6-0000-3-000-3-000-5-3-0000-5-0000-6-3-0000-3-----1-|

F|-----------------------------------------------------------|
C|-----------------------------------------------------------|
G|-----------------------------00001111333355556666555533330-|
D|-6-0000-3-000-3-000-5-3-0000-------------------------------|

Guitar solo 1

F|---------------------------|
C|---------------------------|
G|-7h8p7---------------5-----|
D|-------000-3-0-3-2-0---0-6-|
 |
F|-------------------------------|
C|-------------------------------|
G|-7h8p7-----------5-3-0-3-2-0-2-|
D|-------000-3-000---------------|

F|---------------------------|
C|---------------------------|
G|-7h8p7---------------5-----|
D|-------000-3-0-3-2-0---0-6-|
 |
F|-------------------------------|
C|-------------------------------|
G|-7h8p7-------------------------|
D|-------000-3-0-3-3-333-3-3-3-3-|

Verse 2

F|---------------------------------|
C|---------------------------------|
G|-5-55555-5-55555-5-55555-5-55555-|
D|---------------------------------|

F|-----------------------------------|
C|-----------------------------------|
G|-8------7------8------7------------|
D|---6666---6666---6666---6666-8-6-5-|

F|---------------------------------|
C|---------------------------------|
G|-5-55555-5-55555-5-55555-5-55555-|
D|---------------------------------|

F|-----------------------------------|
C|-----------------------------------|
G|-8------7------8------7----------3-|
D|---6666---6666---6666---6666-3-5---|

F|---------------------------------|
C|---------------------------------|
G|-5-55555-5-55555-5-55555-5-55555-|
D|---------------------------------|

F|-----------------------------------|
C|-----------------------------------|
G|-8------7------8------7------------|
D|---6666---6666---6666---6666-8-6-5-|

F|---------------------------------|
C|---------------------------------|
G|-5-55555-5-55555-5-55555-5-55555-|
D|---------------------------------|

F|-----------------------------------|
C|-----------------------------------|
G|-8------7------8------7----------3-|
D|---6666---6666---6666---6666-3-5---|

F|----------------------------------|
C|----------------------------------|
G|-22222222332233335555555555555555-|
D|----------------------------------|

F|----------------------------------|
C|----------------------------------|
G|-22222222332233337777777777777777-|
D|----------------------------------|

F|----------------------------------|
C|----------------------------------|
G|-22222222332233335555555555555555-|
D|----------------------------------|

F|--------------------------|
C|--------------------------|
G|-2222222233223333-7-5-3-0-|
D|--------------------------|

Chorus

F|-----------------------------------------------------|
C|-----------------------------------------------------|
G|-----------------------------------------------2-1---|
D|-6-0000-3-000-3-000-5-3-0000-5-0000-6-3-0000-3-----1-|

F|--------------------------------------------------------------|
C|--------------------------------------------------------------|
G|---------------------------------55554444----4444-------------|
D|-6-0000-3-000-3-000-5-3-0000-6666--------5555----666633335555-|

F|-----------------------------------------------------|
C|-----------------------------------------------------|
G|-----------------------------------------------2-1---|
D|-6-0000-3-000-3-000-5-3-0000-5-0000-6-3-0000-3-----1-|

F|-------------------------------------------------------------|
C|-------------------------------------------------------------|
G|-----------------------------00001111333355556666555533330---|
D|-6-0000-3-000-3-000-5-3-0000-------------------------------0-|

Interlude

F|---|
C|---|
G|---|
D|-0-|

F|----------------|
C|----------------|
G|-7---6---5----4-|
D|---8---7---6-5--|

F|-----------------|-----------------|-----------------|
C|-----------------|-----------------|-----------------|
G|-7-------8-8-8-8-|-7-------8-8-8-8-|-7-------8-8-8-8-|
D|---0-000---------|---0-000---------|---0-000---------|
 |
F|------------------|
C|------------------|
G|--7-------7---6---|
D|----0-000---8---7-|

F|-----------------|-----------------|-----------------|
C|-----------------|-----------------|-----------------|
G|-7-------8-8-8-8-|-7-------8-8-8-8-|-7-------8-8-8-8-|
D|---0-000---------|---0-000---------|---0-000---------|
 |
F|----------------|
C|----------------|
G|-7---6---5----4-|
D|---8---7---6-5--|

Verse 3

F|---------------------------------|---------------------------------|
C|---------------------------------|---------------------------------|
G|-7-------8-8-8-8-7---------------|-7-------8-8-8-8-----------------|
D|---0-000-----------0-000-0-0-000-|---0-000---------6-6-666-6-6-666-|

F|---------------------------------|---------------------------------|
C|---------------------------------|---------------------------------|
G|-7-------8-8-8-8-7---------------|-7-------8-8-8-8-----------------|
D|---0-000-----------0-000-0-0-000-|---0-000---------6-6-666-5-5-333-|

F|---------------------------------|---------------------------------|
C|---------------------------------|---------------------------------|
G|-7-------8-8-8-8-7---------------|-7-------8-8-8-8-----------------|
D|---0-000-----------0-000-0-0-000-|---0-000---------6-6-666-6-6-666-|

F|---------------------------------|---------------------------------|
C|---------------------------------|---------------------------------|
G|-7-------8-8-8-8-7---------------|-7-------8-8-8-8-----------------|
D|---0-000-----------0-000-0-0-000-|---0-000---------6-6-666-5-5-333-|

F|-----------------------------|
C|-----------------------------|
G|-----------------------------|
D|-3--6-5-1--3-5-6--5-3-8--6-8-|

Guitar solo 2

F|---------------------------------|---------------------------------|
C|---------------------------------|---------------------------------|
G|-7-------8-8-8-8-7---------------|-7-------8-8-8-8-----------------|
D|---0-000-----------0-000-0-0-000-|---0-000---------6-6-666-6-6-666-|

F|---------------------------------|---------------------------------|
C|---------------------------------|---------------------------------|
G|-7-------8-8-8-8-7---------------|-7-------8-8-8-8-----------------|
D|---0-000-----------0-000-0-0-000-|---0-000---------6-6-666-5-5-333-|

F|---------------------------------|---------------------------------|
C|---------------------------------|---------------------------------|
G|-7-------8-8-8-8-7---------------|-7-------8-8-8-8-----------------|
D|---0-000-----------0-000-0-0-000-|---0-000---------6-6-666-6-6-666-|

F|---------------------------------|---------------------------------|
C|---------------------------------|---------------------------------|
G|-7-------8-8-8-8-7---------------|-7-------8-8-8-8-----------------|
D|---0-000-----------0-000-0-0-000-|---0-000---------6-6-666-5-5-333-|

F|-----------------------------|
C|-----------------------------|
G|-----------------------------|
D|-3--6-5-1--3-5-6--5-3-8--6-8-|

Chorus

F|-------------|
C|-------------|
G|-------2-1---|
D|-6---3-----1-|

F|--------------------------------------------------------------|
C|--------------------------------------------------------------|
G|---------------------------------55554444----4444-------------|
D|-6-0000-3-000-3-000-5-3-0000-6666--------5555----666633335555-|

F|-----------------------------------------------------|
C|-----------------------------------------------------|
G|-----------------------------------------------2-1---|
D|-6-0000-3-000-3-000-5-3-0000-5-0000-6-3-0000-3-----1-|

F|-----------------------------------------------------------|
C|-----------------------------------------------------------|
G|-----------------------------00001111333355556666555533330-|
D|-6-0000-3-000-3-000-5-3-0000-------------------------------|

Outro

F|---------|---------|---------|---------|-------|
C|---------|---------|---------|---------|-------| x7
G|-7-----7-|-5-----5-|-3-----3-|-5-----5-|-2-3-5-|
D|---0-0---|---0-0---|---0-0---|---0-0---|-------|

F|---------|---------|---------|---------|-----------|
C|---------|---------|---------|---------|-7-5-4-----|
G|-7-----7-|-5-----5-|-3-----3-|-5-----5-|-------5-7-|
D|---0-0---|---0-0---|---0-0---|---0-0---|-----------|

Legend
------
| h = hammer-on
| p = pull-off
            
Submit corrections

comments powered by Disqus
↑ Back to top | Kreator Bass for Enemy Of God. Lyrics for acoustic guitar and electric guitar. 1 Tablatures and chords are parodies/interpretations of the original songs. You may use it for private study, scholarship, research or language learning purposes only