» » »

Corpses Of Liberty Bass tabs (ver.1)

Artists:  A B C D E F G H I J K L M N O P Q R S T U V W X Y Z # 

Corpses Of Liberty Bass tabs (ver.1)

Kreator
Rating:
5/5 (1 vote)

Hard to play? Try these video lessons and learn fast.
                Kreator - Corpses Of Liberty

First time:

F||-------------------------------------|
C||-------------------------------------|
G||------------3----3-2-0---0-2-3-5-3-2-|
D||-0-----------------------------------|

After that this figure 3 times

F||------------------------------------------------------|
C||------------------------------------------------------|
G||---------/7-(7)/9-10-12-(12)\3----3-2-0---0-2-3-5-3-2-|
D||-0----------------------------------------------------|


F||-------------------------------------|
C||-------------------------------------|
G||-------------------------------------|
D||-1---------------(1)/5---------------|

Let the first note ring in each part.
The rhythm might not be accurate enough, just listen to the song. 
            
Hard to play? Try these video lessons and learn fast. | Correct




comments powered by Disqus
↑ Back to top | Tablatures and chords are parodies/interpretations of the original songs. You may use it for private study, scholarship, research or language learning purposes only