» » »

Bringer Of Torture Tabs (ver.1)

Artists:  A B C D E F G H I J K L M N O P Q R S T U V W X Y Z # 

Bringer Of Torture Tabs (ver.1)

Kreator
Rating:
0/5 (0 votes)

Hard to play? Try these video lessons and learn fast.
                KREATOR - BRINGER OF TORTURE
(Extreme Aggression, 1989)

Key
= after note = vibrato
^ after note = heavy vibrato 
\ = slide down
/ = slide up
+ = tap
h = hammer
p = pull
n = natural harmonic
s = pinching harmonic (squeal)
* = tremolo pick
t = trill
b = bend
|-3-| = triplet

n number above the tab = play the first part then the first finishing part
			 play the first part a second time and then play the second finishing part
			 etc.

Riff 1

E -------------------------------------------------------------------------
B -------------------------------------------------------------------------
G ------------4--5------------8--7------------4--5-------------------------
D ------------4--5------------8--7------------4--5-------------------------
A ------------2--3-----33-0---6--5------------2--3-------------------------
E -0-0-23-0-0------0-0------0------0-0-23-0-0------22-22-22-22-33-33-22-22-

Riff 2

E ---------------------------------------------------------------------------------
B ---------------------------------------------------------------------------------
G -----------------------------------3--4------------------------------------------
D -----------------------------------3--4------------------------------------------
A -11-11-11-11-4-11-11-11-2-11-11-11-1--2--44-44-44-44-77-6-4--66-66-66-66-99-7-6--
E ---------------------------------------------------------------------------------

Riff 2A

E -------------------------------------------------------------------------------
B -------------------------------------------------------------------------------
G -----------------------------------3--4----------------------------------------
D -----------------------------------3--4----------------------------------8--7--
A -11-11-11-11-4-11-11-11-2-11-11-11-1--2--44-44-44-44-77-6-4--55-55-55-55-8--7--
E -------------------------------------------------------------------------6--5--

Riff 3

E ------------------------------------------------------------
B ------------------------------------------------------------
G ------------------------------------------------------------
D -6----2-3-----------------------6----2-3---------8--8---7-8-
A -6----2-3-----------------------6----2-3---------8--8---7-8-
E ----0-----0-0-0-0-0-0-0-0-0-0-0----0-----0-0-0-0-6--6---5-6-

Order

Riff 1 x 7
Riff 2 x 3
Riff 2A x 1
Riff 1 x 2
Riff 3 x 4
Riff 1 x 4
Riff 2 x 3
Riff 2A x 1
Riff 1 x 2
            
Hard to play? Try these video lessons and learn fast. | Correct




comments powered by Disqus
↑ Back to top | Tablatures and chords are parodies/interpretations of the original songs. You may use it for private study, scholarship, research or language learning purposes only