» » »

Kreator, Brainseed Tabs (ver.1)

Artists:  A B C D E F G H I J K L M N O P Q R S T U V W X Y Z # 

Brainseed Tabs (ver.1)

Kreator Tabs
Rating:
0/5 (0 votes)
Brainseed lessons Tabs too difficult? Try these video lessons and learn fast
                

Tuning: E Standard (From 6th: E, A, D, G, B, E)

A very catchy piece from one of their most underrated albums, Renewal.
Guitars (especially Guitar 2 on the Scenarios of Violence remaster)
have a very crunchy and heavily distorted sound. I'm basing this tab
off of the Scenarios of Violence version, as it sounds more crisp to
me, and the bass is louder. There shouldn't be any differences from
the original version from Renewal, however.

Riff 1:
|Both Guitars
|-----------------------------------|
|-----------------------------------|
|-----------------------------------|
|-----------------------------------|
|--2-2-2---5-4-2---5-4-2---5-4-3-3--|
|--0-0-0---3-2-0---3-2-0---3-2-1-1--|
   . . .   . . .   . . .   . . . .


Riff 2: Verse Intro
|Guitar 1 (second time only):
|--------------------------------------|
|--------------------------------------|
|--------------------------------------|
|--------------------------------------|
|---------------------7-7-7-7-7-7-7-7--|
|--------------------------------------|
|                     . . . . . . . .
|
|Guitar 2:
|-------------------------------------|
|-------------------------------------|
|o-----------------------------------o|
|o-----------------------------------o|
|--7p6-------4h6-4h6-7p6--------------|
|--7p6--0-0--4h6-4h6-7p6-0-0-0-0-0-0--|
        . .              . . . . . .


Riff 2A: Verse (Repeat 4x)
|Guitar 1:
|-----------------------------------|
|-----------------------------------|
|o----------------------------------|
|o-9p8-----6h8-6h8-9p8--------------|
|------7-7-------------7-7-7-7-7-7--|
|-----------------------------------|
|      . .             . . . . . .
|
|Guitar 2:
|------------------------------------|
|------------------------------------|
|o-----------------------------------|
|o-----------------------------------|
|--7p6------4h6-4h6-7p6--------------|
|--7p6-0-0--4h6-4h6-7p6-0-0-0-0-0-0--|
       . .              . . . . . .

|Guitar 1:
|------------------------------------|
|------------------------------------|
|-----------------------------------o|
|--9p8-----6h8-6h8------------------o|
|------7-7---------------------------|
|------------------0000000033333333--|
|      . .         ................
|
|Guitar 2:
|-------------------------------------|
|-------------------------------------|
|------------------------------------o|
|------------------------------------o|
|--7p6------4h6-4h6-------------------|
|--7p6-0-0--4h6-4h6-0000000033333333--|
       . .          ................


Riff 3:
|Both Guitars
|-----------------------------|
|-----------------------------|
|-----------------------------|
|--4-----5---7---4-----5---7--|
|--4-----5---7---4-----5---7--|
|--2-----3---5---2-----3---5--|


Play:
Riff 2A
Riff 3


Riff 2B (basically play pull-offs one step higher)
|Guitar 1:
|-----------------------------------------|
|-----------------------------------------|
|o---------------------------------------o|
|o-11p10-----8h10-8h10-11p10-------------o|
|--------7-7-----------------7-7-7-7-7-7--|
|-----------------------------------------|
|        . .                 . . . . . .
|
|Guitar 2:
|------------------------------------|
|------------------------------------|
|o----------------------------------o|
|o----------------------------------o|
|--9p8------6h8-6h8-9p8--------------|
|--9p8-0-0--6h8-6h8-9p8-0-0-0-0-0-0--|
       . .              . . . . . .

Riff 4: Pre-Chorus (Repeat 4x)
|Both Guitars:
|---------------------------------|
|---------------------------------|
|o-------------------------------o|
|o-------------------------------o|
|--------------4---------------6--|
|--1-1-1-1-1-1-2---1-1-1-1-1-1-4--|
   . . . . . .     . . . . . . *
   
*last time let ring

BURN THE BRAIN!

Riff 1A: Variation on Riff 1 (Repeat 4x)
The bass plays Riff 1 on this, and the guitars seem to emphasise it.
|Both Guitars
|-------------------------|
|-------------------------|
|o-----------------------o|
|o-----------------------o|
|--2-2-2-------2-------2--|
|--0-0-0-------0-------0--|
   . . .       .       .


Riff 5: (Repeat 4x)
|Guitar 1:
|---------------------------------|
|---------------------------------|
|o-------------------------------o|
|o-2---------------9-------8---4-o|
|--2---------------9-------8---4--|
|--0---------------7-------6---2--|
|
|
|Guitar 2:
|-----------------------------------------|
|-----------------------------------------|
|----------------------------------------o|
|--7-x-7-x-7-x-7-x-7-x-7-x-7-x-7--4h5p4--o|
|--5-x-5-x-5-x-5-x-5-x-5-x-5-x-5-------5--|
|-----------------------------------------|


Riff 6: Solo Rhythm (Repeat 4x)
|Guitar 1:
|-----------------------------------|
|-----------------------------------|
|o---------------------------------o|
|o---------7-----7---------7-------o|
|--5-5-5-5-5-5-5-5-5-5-5-5-5-5-5-5--|
|-----------------------------------|
|  . . . .   . .   . . . .   . . .
|
|Guitar 2:
|----------------------------------------------------|
|--------------15-------14-------------15-14---------|
|--11-11-11-11----11-11----11-15-14-11-------11-11--o|
|---------------------------------------------------o|
|----------------------------------------------------|
|----------------------------------------------------|


Solo:
|-------------------------------------|
|-------------------------------------|
|---22222222222222224444444444444444--|
|---44444444444444446666666666666666--|
|-------------------------------------|
|-------------------------------------|


|-------------------------------------------------------------------------|
|------------------/20-18-17-18---12-13-15-13-12-10-----------------------|
|----16-17-19-17------------------------------------12-11-9--------------o|
|-----------------------------------------------------------12-11-9-12~--o|
|-------------------------------------------------------------------------|
|-------------------------------------------------------------------------|

Play:
Riff 5
Riff 4
Riff 2A
Riff 3


Riff 1B: Outro
|Both Guitars
|-------------------------------------|
|-------------------------------------|
|-------------------------------------|
|----------------------------------2--|
|--2-2-2---5-4-2---5-4-2---5-4-3-2-2--|
|--0-0-0---3-2-0---3-2-0---3-2-1-0-0--|
   . . .   . . .   . . .   . . . .
   
   
Total Riff Order (repeat numbers included):
Riff 1 4x
Riff 2 2x
Riff 2A 4x
Riff 3
Riff 2A 4x
Riff 3 2x
Riff 2B 2x
Riff 4 4x
Riff 1A 4x
Riff 5 4x
Riff 6 4x
Solo
Riff 5 4x
Riff 4 4x
Riff 2A 4x
Riff 3 2x
Riff 1B/Outro


I hope this is accurate to a point. Send any questions or corrections to: 
            

comments powered by Disqus
↑ Back to top | Kreator Tabs for Brainseed. Lyrics for acoustic guitar and electric guitar. Tablatures and chords are parodies/interpretations of the original songs. You may use it for private study, scholarship, research or language learning purposes only