>
 >
Blind Faith

Blind Faith Guitar Tabs

Kreator - Blind Faith chords, tabs, tablatures, lyrics

Guitar lessons | Add/correct | Request | Top 50 tabs Artists:  A B C D E F G H I J K L M N O P Q R S T U V W X Y Z 0-9

Blind Faith Guitar Tabs – Kreator

CD, Sheet music, Poster

Do you like Blind Faith? Share with your friends now
Tabs
KREATOR - BLIND FAITH
(Coma Of Souls, 1987)

Key
= after note = vibrato
^ after note = heavy vibrato 
\ = slide down
/ = slide up
+ = tap
h = hammer
p = pull
n = natural harmonic
s = pinching harmonic (squeal)
* = tremolo pick
t = trill
b = bend
|-3-| = triplet

n number above the tab = play the first part then the first finishing part
			 play the first part a second time and then play the second finishing part
			 etc.

Riff 1

E -----------------------------------------------------------
B -----------------------------------------------------------
G -------7----7------------------------7----7--7-----5----7--
D -6-----7----7--------5-4-0-2-0-6-----7----7--7-----6----7--
A -6-----5----5--5-4-0-----------6-----5----5--5--------0-5--
E -4-0-0----0--------------------4-0-0----0------4-4---------

Riff 2

E ---------------------------------------
B ---------------------------------------
G -------6----6--------------------------
D -5-----6----6--------------------------
A -5-----4----4--------------------------
E -3-0-0----0----11-11-11-11-11-11-11-11-

Riff 2A

E ------------------------
B ------------------------
G -------6----6-----------
D -5-----6----6--3--------
A -5-----4----4--3--------
E -3-0-0----0----1--------

Riff 3

E -------------------------------------------------------------------------------------------------
B -------------------------------------------------------------------------------------------------
G -------------------------------------------------------------------------------------------------
D -44-44-44-44-44-44-44-44-44-44-44-44-44-44-44-44-55-55-55-55-55-55-55-55-66-66-66-66-77-77-77-77-
A -22-22-22-22-22-22-22-22-33-33-33-33-33-33-33-33-44-44-44-44-44-44-44-44-55-55-55-55-66-66-66-66-
E -------------------------------------------------------------------------------------------------

Riff 4

E -----------------------------------------------------------------
B -----------------------------------------------------------------
G -------------7--9-----------7--------------7--9------------------
D -------------7--9--8-7--8---7--------------7--9------------------
A -------------5--7--8-7--8---5--------------5--7------------------
E -66-66-66-66-------6-5--6------66-66-66-66-------6-5-0-5-4-0-4-0-

E -----------------------------------------------------------------
B -----------------------------------------------------------------
G -------------7--9-----------7--------------7--9------------------
D -------------7--9--8-7--8---7--------------7--9------------------
A -------------5--7--8-7--8---5--------------5--7--7-6-0-6-5-0-4-0-
E -66-66-66-66-------6-5--6------66-66-66-66-----------------------

Riff 5

E ----------------------------------------------------------------------------------
B ----------------------------------------------------------------------------------
G ----------------------------------------------------------------------------------
D -------------5---6--------------5---6--------------5---6--33-33-33-33-33-33-33-33-
A -33-33-33-33---3----33-33-33-33---3----33-33-33-33---3----44-44-44-44-44-44-44-44-
E ----------------------------------------------------------------------------------

E --------------------------------------------------------------------------
B --------------------------------------------------------------------------
G --------------------------------------------------------------------------
D -------------5---6--------------5------------------5---6------------------
A -33-33-33-33---3----33-33-33-33---3-4--33-33-33-33---3--------------------
E ----------------------------------------------------------7-6-0-6-5-0-5-0-

Riff 5A

E ----------------------------------------------------------------------------------
B ----------------------------------------------------------------------------------
G ----------------------------------------------------------------------------------
D -------------5---6--------------5---6--------------5---6--33-33-33-33-33-33-33-33-
A -33-33-33-33---3----33-33-33-33---3----33-33-33-33---3----44-44-44-44-44-44-44-44-
E ----------------------------------------------------------------------------------

E --------------------------------------------------------------------------------------
B --------------------------------------------------------------------------------------
G --------------------------------------------------------------------------------------
D -------------5---6--------------5------------------5---6------------------5--5--5--5--
A -33-33-33-33---3----33-33-33-33---3-4--33-33-33-33---3--------------------5--5--5--5--
E ----------------------------------------------------------7-6-0-6-5-0-5-0-3--3--3--3--

Riff 5B

E ----------------------------------------------------------------------------------
B ----------------------------------------------------------------------------------
G ----------------------------------------------------------------------------------
D -------------5---6--------------5---6--------------5---6--33-33-33-33-33-33-33-33-
A -33-33-33-33---3----33-33-33-33---3----33-33-33-33---3----44-44-44-44-44-44-44-44-
E ----------------------------------------------------------------------------------

E ----------------------------------------------------------------------------
B ----------------------------------------------------------------------------
G ----------------------------------------------------------------------------
D -------------5---6--------------5------------------5---6------------------2-
A -33-33-33-33---3----33-33-33-33---3-4--33-33-33-33---3--------------------2-
E ----------------------------------------------------------7-6-0-6-5-0-5-0-0-

Riff 6

E -----------------------------------------------------------------
B -----------------------------------------------------------------
G -------------------------------------------------2-----2---------
D -7-----7-------------------------7-----7-----7---2-----2---2-1---
A -8-----8-----8-7-7---------------8-----8-----8---0-0-0-0-0-----0-
E ---0-0---0-0-----8-0-0-0-0-0-0-0---0-0---0-0---0-----------------

E -----------------------------------------------------------------
B -----------------------------------------------------------------
G -------------------------------------------------2-----2-------1-
D -7-----7-------------------------7-----7-----7---2-----2---2-1---
A -8-----8-----8-7-7---------------8-----8-----8---0-0-0-0-0-------
E ---0-0---0-0-----8-0-0-0-0-0-0-0---0-0---0-0---0-----------------

Riff 7

E -------------------------------------------------
B -------------------------------------------------
G -------------------------------------------------
D -------------------------00-00-00-00-00-00-00-00-
A -00-00-33-00-33-00-33-00-11-11-11-11-11-11-11-11-
E -------------------------------------------------

Riff 8

E -------------------------------------------------
B -------------------------------------------------
G -44-44-44-44-44-44-44-44-55-55-55-55-55-55-55-55-
D -22-22-22-22-22-22-33-33-44-44-44-44-44-44-44-44-
A -------------------------------------------------
E -------------------------------------------------

Order

Riff 1 x 2
Riff 2 x 3
Riff 2A x 1
Riff 1 x 2
Riff 2 x 4
Riff 3 x 1
Riff 2 x 2
Riff 4 x 1
Riff 5 x 1
Riff 1 x 2
Riff 2 x 4
Riff 3 x 1
Riff 2 x 2
Riff 4 x 1
Riff 5A x 1
Riff 1 x 4
Riff 6 x 4
Solo over Riff 7 x 4
Solo over Riff 8 x 4
Solo over Riff 7 x 4
Solo over Riff 8 x 4
Riff 1 x 4
Riff 2 x 4
Riff 3 x 1
Riff 2 x 2
Riff 4 x 1
Riff 5B x 1





Comments


Popular Kreator tabs & chords
Phobia Bass Tabs
Riot Of Violence Bass Tabs
Voices Of The Dead Intro 2 Bass Tabs
Agents Of Brutality 1 Tabs
Bringer Of Torture Tabs
Endless Pain Tabs
Pleasure To Kill Tabs
Reflection 1 Tabs
Tormentor Tabs
Violent Revolution Tabs


Song lyrics



↑ Back to top | Tablatures and chords are parodies/interpretations of the original songs. You may use it for private study, scholarship, research or language learning purposes only
© 2014 AZChords.com Contact us | Privacy policy | DMCA | Add/correct tabs | Request tabs | Top 50 tabs