>
 >
As The World Burns

As The World Burns Guitar Tabs

Kreator - As The World Burns chords, tabs, tablatures, lyrics

Guitar lessons | Add/correct | Request | Top 50 tabs Artists:  A B C D E F G H I J K L M N O P Q R S T U V W X Y Z 0-9

As The World Burns Guitar Tabs – Kreator

CD, Sheet music, Poster

Do you like As The World Burns? Share with your friends now
Tabs
KREATOR - AS THE WORLD BURNS


First of all:
I did NOT include any palm mutes, 100accurate timing or detailed song structure
information. My point is: if you are familiar with the song, you won't need that
stuff anyway. And why use this tab if you don't know the song?? ;)

That being said here is the song, which I did my best to transcribe correctly.
I think it is correct, but if you still notice any errors tell me.


main riff
e---------------------------------
b---------------------------------
g---------------------------------
d-7----------7---7----------------
a-5----------5---6----------------
e----0-0-0-0---0---0-0-6-0-5-6-7--
     
end fill 1
e------------------
b------------------
g------------------
d------------------
a-8---7-8-7-8-7-5--
e-6---5-6-5-6-5-3--

end fill 2
e----------------------------------
b----------------------------------
g----------------------------------
d----------------------------------
a-8---7-8-7-8-7-5-3-----3---3---3--
e-6---5-6-5-6-5-3-1---0-1-0-1-0-1--

"Chorus" (if you can call it that)
e----------------------------------------------------------------
b----------------------------------------------------------------
g-------------------------------------------------8-7-5----------
d-----------4---5---------5---4-----------6---7---------8-7-5----
a-2---------2---3---------6---5-----------4---5---------------7--
e-0-0-0-0-0---0---0-0-0-0---0---0-0-0-0-0---0---0----------------

e--------------------------------------------------------------|---------------
b--------------------------------------------------------------|---------------
g--------------------------------------------------------------|---------------
d-----------4---5---------5---4-----------6---2-----4---5---4--|2---4---5---4--
a-2---------2---3---------6---5-----------4---3-----3---3---3--|3---3---3---3--
e-0-0-0-0-0---0---0-0-0-0---0---0-0-0-0-0---0-----0---0---0---0|--0---0---0----
                                                                 2nd time only
                                                                "As the world burns!"

The fill before middle part:
e------------------------------------
b------------------------------------
g------------------------------------
d-10-10-10-9------7-7-7-5------------
a-8--8--8--7------5-5-5-3------------
e------------------------------------


e----------------------------------------------------------------
b----------------------------------------------------------------
g----------------------------------------------------------------
d----------------------------------------------------------------
a-8-7-5-3-----3---3---3---3---3---8-7-5-3-----3---3---3---3---3--
e-6-5-3-1---0-1-0-1-0-1-0-1-0-1-0-6-5-3-1---0-1-0-1-0-1-0-1-0-1--


Now this is a kickass riff!
e--------------------------------
b--------------------------------
g--------------------------------
d-------------6---5--------------
a-5-----------4-x-3-5/6-x-5-x-6--
e-3---3-3-3-3---x---3/4-x-3-x-4--

e--------------------------------
b--------------------------------
g--------------------------------
d-------------8---7-------7---8--
a-7-----------6-x-5-7/8-x-5-x-6--
e-5---5-5-5-5---x---5/6-x---x----

Under the solo just play the main riff from the beginning,
expect for a while it is played a little higher:
e---------------------------------
b---------------------------------
g-7----------7---7----------------
d-5----------5---6----------------
a----0-0-0-0---0---0-0-6-0-5-6-7--
e---------------------------------

Then repeat chorus.

That's it!





Comments


Popular Kreator tabs & chords
People Of The Lie Bass Tabs
Under The Guillotine Bass Tabs
Agents Of Brutality 1 Tabs
Civilization Collapse Intro Tabs
Flag Of Hate 1 Tabs
People Of The Lie Tabs
Pleasure To Kill 1 Tabs
Reflection Tabs
Total Death Tabs
Twisted Urges Tabs


Song lyrics



↑ Back to top | Tablatures and chords are parodies/interpretations of the original songs. You may use it for private study, scholarship, research or language learning purposes only
© 2014 AZChords.com Contact us | Privacy policy | DMCA | Add/correct tabs | Request tabs | Top 50 tabs