» » »

Agents Of Brutality Tabs (ver.2)

Artists:  A B C D E F G H I J K L M N O P Q R S T U V W X Y Z # 

Agents Of Brutality Tabs (ver.2)

Kreator
Rating:
0/5 (0 votes)

Hard to play? Try these video lessons and learn fast.
                Agents of Brutality
As recorded by Kreator
(from the Album Coma of Souls)

Second Guitar Lead (bends indicated by ')

Tuning (Low - High): Eb Ab Db Gb Bb Eb

|-----------------------------------------------------|
|-------------------------------9-10-12-14'\12-10-----|
|--------------11\9------(9)/11-------------------11\-|
|---------9-11------11-9------------------------------|
|-------7---------------------------------------------|
|-(7)/9-----------------------------------------------|

|--------------------------------------------------------|
|--------------7-10-14-----------------------------------|
|------------6---------14-13-11-10^11-13'\(11)-10--------|
|-11-------7--------------------------------------12^(0)-|
|----0---9-----------------------------------------------|
|------9-------------------------------------------------|

|-------------------------------------------------------------|
|---------------------------------------------------------9\2-|
|---------9---------------------------------------------------|
|-9-11-12---12-11-9-7-9-11-9----------------------------------|
|----------------------------11-11-9-11-12^11-9-7-7-7\(4)-----|
|-------------------------------------------------------------|

|--------|-------------|----------|---------|-------------------------------|
|-10^9^7-|-12^10^9^7^9-|-10^9^7^9-|-12^9^10-|-12^10^9^10-12^9^10-14^10^9^10-|
|--------|-------------|----------|---------|-------------------------------|
|--t-----|--t----------|--t-------|--t------|--t----------t-------t---------|
|--------|-------------|----------|---------|-------------------------------|
|--[x3]--|-------------|---[x3]---|---[x2]--|-------------------------------|

|------------|-----------------------------------------------|
|-12^10^9^10-|-12^9^10^12-14^10^9^12-14^10^12^10^12-14^10^12-|
|------------|-----------------------------------------------|
|--t---------|--t----------t----------t--------------t-------|
|------------|-----------------------------------------------|
|----[x2]----|-----------------------------------------------|

|----------------------------------|----------------------|
|-14^12^10^12-15^12^10^12-14^12^10-|-15^10^12^10-17^10^12-|
|----------------------------------|----------------------|
|--t-----------t-----------t-------|--t-----------t-------|
|----------------------------------|----------------------|
|----------------------------------|----------------------|

|-------------------------------------------------------|
|-12/19/22'\19---------------10-------12-(10)/14-17-19\-|
|---------------(9)/11--9-11-----9-11-------------------|
|-------------------------------------------------------|
|-------------------------------------------------------|
|-------------------------------------------------------|
            
Hard to play? Try these video lessons and learn fast. | Correct




comments powered by Disqus
↑ Back to top | Tablatures and chords are parodies/interpretations of the original songs. You may use it for private study, scholarship, research or language learning purposes only