» » »

Agents Of Brutality Tabs (ver.1)

Artists:  A B C D E F G H I J K L M N O P Q R S T U V W X Y Z # 

Agents Of Brutality Tabs (ver.1)

Kreator
Rating:
0/5 (0 votes)

Tabs too difficult? Try these video lessons and learn fast.
                KREATOR - AGENTS OF BRUTALITY


Again, it's probably impossible to understand this correctly if you're not
familiar with the song, especially some of those more intricate lines. Plus figure
out the palm mutes & rest yourself. I couldn't get the solo 100right, but sounds
good enough to me :)



Intro

3x
e------------------------------------
b------------------------------------
g------------------------------------
d------------------------------------
a-2-----------------4-----4-5-4-5-7--
e-0---7-6---/-------2----------------
           long slide

e------------------------------
b------------------------------
g------------------------------
d----------------------2-------
a-9------8------4------3--3-3--
e-6--6-6-6--6-6-4--4-4---------


e-----------------------------------------------------------------------
b-----------------------------------------------------------------------
g-----------------------------------------------------------------------
d-----4-3---------------------------------------------------------------
a-2---2-1------1-1-4-----4-5-4-5-7----2---6-7----------4-----4-5-4-5-7--
e-0----------------2------------------0---4-5------5-5-2----------------

e---------------------------------------------------------------------------
b---------------------------------------------------------------------------
g---------------------------------------------------------------------------
d-----4-3------------------4-----------------------------2------------------
a-2---2-1------1-1-4---------7-5-4--9------8------4------3-----let ring-----
e-0----------------2-----2----------6--6-6-6--6-6-4--4-4--------------------



e------------------
b------------------
g------------------
d---------3-2-0-2--
a-5-3-2-0----------
e------------------



e------------------------------------------------------------------
b------------------------------------------------------------------
g------------------------------------------------------------------
d-------------------5-4-2---3-----------------------------3-2-0-2--
a-2--------2--------3-2-0-4-1-3-2--------2--------5-3-2-0----------
e-0-000000-0-000000-------2---1-0-000000-0-000000------------------


e-----------------------------------------------------------------------
b-----------------------------------------------------------------------
g-----------------------------------------------------------------------
d-----------------1077710777--------------------------------------------
a-7777777710777777----------1077710777666666667666666696669666-5-3-2-0--
e-----------------------------------------------------------------------


Verse
e------------------------------------------------------------------------
b------------------------------------------------------------------------
g------------------------------------------------------------------------
d------------------------------6-----------------------------------------
a-2--------2--------2--------5-4---5-2--------2--------2--------5-3-2-0--
e-0-000000-0-000000-0-000000-3-----3-0-000000-0-000000-0-000000----------

e------------------------------------------------------------------------
b------------------------------------------------------------------------
g----------------------------------5-------------------------------------
d------------------------------5---3-------------------------------------
a-2--------2--------2--------2-3-----2--------2--------2--------5-3-2-0--
e-0-000000-0-000000-0-000000-0-------0-000000-0-000000-0-000000----------

e------------------------------------------------------------------------
b------------------------------------------------------------------------
g------------------------------6-----------------------------------------
d-2--------2--------2--------5-4---5-2--------2--------2-----------------
a-0-000000-0-000000-0-000000-3-----3-0-000000-0-000000-0-000000-5-3-2-0--
e------------------------------------------------------------------------

e------------------------------------------------------------------------
b------------------------------------------------------------------------
g----------------------------------5-------------------------------------
d------------------------------5---3-------------------------------------
a-2--------2--------2--------2-3-----2--------2--------2--------5-3-2-0--
e-0-000000-0-000000-0-000000-0-------0-000000-0-000000-0-000000----------



"MANIC!! PANIC!!"
e--------------------------------------------------
b--------------------------------------------------
g--------------------------------------------------
d--------------------------------------------------
a----222333------------------444777444222222002333-
e-000------555333333333333000----------------------

Repeat intro


Frank solo rhythm
e-----------------------------------------------------------------------
b-----------------------------------------------------------------------
g-----------------------------------------------------------------------
d---------------4--5---------------2------------------------------------
a-2-------------2--3---------------0--------------3--2------------------
e-0-----------------------------------------------1--0------------------


Then my "version" of Frank's solo:
e----------------------------------------------------14----15----17----17^-----15---------
b------------10----12----15^-15----12----10----15^--------------------------------17------
g-----------------------------------------------------------------------------------------
d-9----12---------------------------------------------------------------------------------
a-----------------------------------------------------------------------------------------
e-----------------------------------------------------------------------------------------

e---------------------12--15--18--15--14---------------------------------
b-----------------12----------------------17--16--17^-----16--13---------
g-------------12---------------------------------------------------------
d------------------------------------------------------------------------
a---------14-------------------------------------------------------------
e-12--15-----------------------------------------------------------------

e-----7--8--10--8--7--5--3--5--7--5---------------------------------------[5]////-dive--
b-10---------------------------------7--h8p7t8p7p5t10p5--9p7h9p7h-----------------------
g----------------------------------------------------------------9/---------------------
d---------------------------------------------------------------------------------------
a------------------------------------???????????????????????????????--------------------
e---------------------------------------------------------------------------------------
                                             I------------------------------------I
                                                this part is IMO almost impossible to
                                                make sense of :)

e------------------------------------------------------------------------
b-h8p7t8p7p5h8p7t8p7p5h8p7t8p7p5h10p8t10p8p7---2x------------------------
g------------------------------------------------------------------------
d------------------------------------------------------------------------
a------------------------------------------------------------------------
e------------------------------------------------------------------------

e------------------------------------------------------------------------
b-h10p8h10p8p7h10p8h10p8p7h10p8h10p8p7h12p10h12p10p8-2x------------------
g------------------------------------------------------------------------
d------------------------------------------------------------------------
a------------------------------------------------------------------------
e------------------------------------------------------------------------

e------------------------------------------------------------------------
b-h12p10h12p10p8h12p10h12p10p8h12p10h12p10p8h13p10h13p10p8---------------
g------------------------------------------------------------------------
d------------------------------------------------------------------------
a------------------------------------------------------------------------
e------------------------------------------------------------------------

e------------------------------------------------------------------------
b-h12p10h12p10p8h13p10h12p10p8h15p10h12p10p8h13p10h13p10p8-15^----15-----
g------------------------------------------------------------------------
d------------------------------------------------------------------------
a------------------------------------------------------------------------
e------------------------------------------------------------------------

e------------------------------------------------------------------------
b----------------12----------------10--------10/12--15--15^--------------
g-14-------12-14---------------------------------------------------------
d------------------------------------------------------------------------
a------------------------------------------------------------------------
e------------------------------------------------------------------------


End
e-------------------------------------------------------------
b-------------------------------------------------------------
g-------------------------------------------------------------
d-5--4--2-----3-----6--5--------4-------------3-2-0-2---------
a-3--2--0--4--1--3--4--3--6--5--2--4--5-3-2-0---------2-------
e----------2-----1--------4--3-----2------------------0-------
            
Tabs too difficult? Try these video lessons and learn fast.


comments powered by Disqus
↑ Back to top | Tablatures and chords are parodies/interpretations of the original songs. You may use it for private study, scholarship, research or language learning purposes only