» » »

Kreator, After The Attack Tabs (ver.1)

Artists:  A B C D E F G H I J K L M N O P Q R S T U V W X Y Z # 

After The Attack Tabs (ver.1)

Kreator Tabs
 Rating:
4/5 (4 votes)
After The Attack lessons Tabs too difficult? Try these video lessons and learn fast
1
                
the tabs are probaly wrong cause i did it by ear by it still sounds somthing like it 
i posted this song cause its a tight by KREATOR!!!!!


Main riff
|----------------------------|
|----------------------------|
|----------------------------|
|-----5---4-------5-----0-2--|
|-2---3---2---2---3-0-0------|
|-0000-000-0000000-----------|

Pre-chorus
|-----------------------------------------|
|-----------------------------------------|
|-----------------------------------------|
|--3--2--3--5--3--2--3--2--3--------------|
|-----------------------------------------|
|00-00-00-00-00-00-00-00-00-3333333333333-|

Chorus "After the attack"

|-----------------------------|
|-----------------------------|
|-----------------------------|
|-----------------------------|
|-5--4------------------------|
|-3--2--5-------------------2-|
|-------300000000000000000000-|


Pre and under solo riff

|----------------------------------------------|
|----------------------------------------------|
|----------------------------------------------|
|----------------------------------------------|
|----------------------------------------------|
|-443443443443-000-000-000-000-000-000-000-000-|


Afetr solo riff

|------------------|
|------------------|
|------------------|
|-----------5------|
|-2--2--2-2-3-5-4--|
|-0--0--0-0---3-2--|

well thats it i did what i could cause i couldn't find any tabs for this song.
            
Submit corrections

comments powered by Disqus
↑ Back to top | Kreator Tabs for After The Attack. Lyrics for acoustic guitar and electric guitar. 1 Tablatures and chords are parodies/interpretations of the original songs. You may use it for private study, scholarship, research or language learning purposes only