>
 >
Lenny Kravitz Unplugged

Lenny Kravitz Unplugged Guitar Tabs

Kravitz Lenny - Lenny Kravitz Unplugged chords, tabs, tablatures, lyrics

Guitar lessons | Add/correct | Request | Top 50 tabs Artists:  A B C D E F G H I J K L M N O P Q R S T U V W X Y Z 0-9

Lenny Kravitz Unplugged Guitar Tabs – Kravitz Lenny

CD, Sheet music, Poster

Do you like Lenny Kravitz Unplugged? Share with your friends now
Tabs
Lenny kravitz unplugged 



Are You Gonna Go My Way? 


X = Mute string with left hand finger 
p = pull off (using left hand finger) 
b = bend 
/ = slide up 
  

Opening riff, + beginning lines of the song, 
first 4 times then 5 times with vocals 

    E5  E5    E5    A   G A E/A 
e|---------------------|--------------| 
B|---------------------|--------------| 
G|--1---1-1---1-1---2p-|-0-2-/9-------| 
D|--2---2-2---2-2------|-----/9-------| 
A|--2---2-2---2-2------|--------------| 
E|--0---0-0---0-0------|--------------| 

This riff for: 

       1st verse                          2nd verse 

       I was born                         I don't know why 
       long ago                           we always cry 
       I am the chosen I'm the one        This we must leave and get undone 
       I have come                        We must engage 
       to save the day                    and rearrange 

Then this one once: 

    E   E     E     A   G A   E5    F5    F#5   G5 
e |-------------------|-------0-0-0--1-1-1--2-2-2--3-3-3-| 
B|--------------------|-------0-0-0--1-1-1--2-2-2--3-3-3-| 
G|--1---1-1---1-1---2-|-0-2---1-1-1--2-2-2--3-3-3--4-4-4-| 
D|--2---2-2---2-2-----|-------2-2-2--3-3-3--4-4-4--5-5-5-| 
A|--2---2-2---2-2-----|-------2-2-2--3-3-3--4-4-4--5-5-5-| 
E|--0---0-0---0-0-----|-------0-0-0--1-1-1--2-2-2--3-3-3-| 
                              |----4/1speed increase----| 

  And I won't leave until I'm done        And get this planet back to one 
  

Then this twice: 
    G5  G5    G5    D   A D  G 
e|---------------------|---------------| 
B|---------------------|---------------| 
G|--4---4-4---4-4---5--|-2-5-/12-------| 
D|--5---5-5---5-5------|-----/12-------| 
A|--5---5-5---5-5------|---------------| 
E|--3---3-3---3-3------|---------------| 

       So that's why                      So tell me why 
       you've got to try                  We gotta die 

Then this once 
    G5  G5    G5    D   A D   G5     F#5    F5     E5 
e|--------------------|-------3-3-3--2-2-2--1-1-1--0-0-0--| 
B|--------------------|-------3-3-3--2-2-2--1-1-1--0-0-0--| 
G|--4---4-4---4-4---5-|-2-5---4-4-4--3-3-3--2-2-2--1-1-1--| 
D|--5---5-5---5-5-----|-------5-5-5--4-4-4--3-3-3--2-2-2--| 
A|--5---5-5---5-5-----|-------5-5-5--4-4-4--3-3-3--2-2-2--| 
E|--3---3-3---3-3-----|-------3-3-3--2-2-2--1-1-1--0-0-0--| 
                              |----4/1speed increase----| 

       You've got to breathe -            And kill each other - 
       and have some fun                  one by one 
  

This twice: 
    E5  E5    E5    A   G A E/A 
e|--------------------|-------------- 
B|--------------------|-------------- 
G|--1---1-1---1-1---2-|-0-2-/9------- 
D|--2---2-2---2-2-----|-----/9------- 
A|--2---2-2---2-2-----|-------------- 
E|--0---0-0---0-0-----|-------------- 

       Though I'm not paid -              We've got to love - 
       I play this game                   and rub-a-dub 

This once: 
    E   E     E    A   G A   E5    F5    F#5   G5 
e|-------------------|-------0-0-0--1-1-1--2-2-2--3-3-3| 
B|-------------------|-------0-0-0--1-1-1--2-2-2--3-3-3| 
G|-1---1-1---1-1---2-|-0-2---1-1-1--2-2-2--3-3-3--4-4-4| 
D|-2---2-2---2-2-----|-------2-2-2--3-3-3--4-4-4--5-5-5| 
A|-2---2-2---2-2-----|-------2-2-2--3-3-3--4-4-4--5-5-5| 
E|-0---0-0---0-0-----|-------0-0-0--1-1-1--2-2-2--3-3-3| 
                             |----4/1speed increase----| 

       And I won't stop until I'm done    We've got to dance and be in love 
  

Then chorus once: 
    G5                        F#5           F5          E 
e|--------------------|-------------------|-------------0----- 
B|--------------------|-------------------|-------------0----- 
G|--4---4-4---4-4---4-|-4---4-3---3-3---3-|-2---2-2---2-X----- 
D|--5---5-5---5-5---5-|-5---5-4---4-4---4-|-3---3-3---3-2----- 
A|--5---5-5---5-5---5-|-5---5-4---4-4---4-|-3---3-3---3-2----- 
E|--3---3-3---3-3---3-|-3---3-2---2-2---2-|-1---1-1---1-0----- 
                                                       Let e & B ring here! 

                     But what I really want to know is 
                     Are you gonna go my way 
  
  

Then maybe this four times or so: 
    E5  E5    E5    A     G A E/A 
e|----------------------|------------- 
B|----------------------|------------- 
G|--1---1-1---1-1---2bp-|-0-2-/9------ 
D|--2---2-2---2-2-------|-----/9------ 
A|--2---2-2---2-2-------|------------- 
E|--0---0-0---0-0-------|------------- 


 
Flowers for Zoe 
-Guitar Tabs-



  
  G6                 F#7               Fmaj7             E 
|-------0----------|-------0---------|-------0---------|-------0-------------| 
|-----3-----3------|-----2-----2-----|-----1-----1-----|-----0-----0---------| 
|---4---------4----|---3---------3---|---2---------2---|---1---------1-------| 
|-5----------------|-4---------------|-3---------------|-2-------------------| 
|------------------|-----------------|-----------------|---------------------| |------------------|-----------------|-----------------|---------------------| 
  




 
Just be a woman 


Intro: A A+ A9 A+ 
  
   A 
U ask me 
     A+ 
How should I B 2 U? 

   A9 
U ask me 
           A+ 
2 tell U what 2 do 
   A 
U ask me 
     A+ 
How can we make it through? 
   A9 
U want me 
          A7sus 
But don't know what 2 do 

       D       Dm7 (V)   Dm7+ (V) 
And I just want U 2 
     A   E 
Be true 
E A A+ 
Just be a woman 
A+ A E 
Just be a woman 

U ask me 
How can I make U smile? 
U ask me 
How can I make it right? 
But darling, just take a look inside 
The answers are within your own mind 

And I just want U 2 
Be U 
Just be a woman 
That's all U got 2 do 
Just be a woman 

guitar goes solo       (> means "slide") 
  

e---O------575>9-----------------------------------------------------------------57875---------------------/ 
b--7-5566--------99-578-8>7-5>3>5----------->109----10>12-10---10-------------6-5-7-5--5>7-5>7-5--/ 
g----------------------------------------6-6799-7-------9-------------11---11-7------------------------/ 

Just be a woman 
Do what U got 2 do 
Just be a woman 
That's all U got 2 do 
Just be a woman 
That's all I got 2 say 
Just be a woman 
  

CHORDS: 

A               O O 3 3 3 O 
A+              O O 3 3 3 1 
A9              O O 3 3 3 3 
Asus7           O O 3 3 3 4 
D               O O O 2 3 2 
Dm7 (V)         O O O 5 6 5 
Dm7+ (V)        O O O 5 6 7 
E               O 2 2 1 O O 
  
 


Let love rule 



Legend:       E : 022100 
              G : 355433 
             G# : 466544 
              A : 577655 
             A# : 688766 
              C : 81010988 
  

E              G 
Love is gentle as a rose 
    E                G       G G# A 
and love can concure any war 
                          A A# C 
it's time to take a stand 

brothers and sisters join hands 
  

Chorus: 
N.C. 
We've got to let love 
 G   A    C    G 
"Let love rule" 
G 
we've got to let love rule 
 G   A    C    G 
"Let love rule" 

  
E                   G 
Love transcends all space and time 
           E                            G 
(and baby) love can make a little child smile (yes it will) 
                  E 
oh baby can't you see 
              G       G G# A 
----------------------------- 
                               A A# C 
but we, we've got to be strong 

we can't do it alone 
  

Chorus 

{ Sax solo over instrumental version of 2nd verse} 

Chorus {Fade til end} 

 
 
Rosemary 




Asus2 base-fret 1 frets X 0 2 2 0 0 
G/A base-fret 1 frets 3 2 0 0 0 3 
D/F# base-fret 1 frets X 0 4 2 3 2 
Dm6 base-fret 1 frets X X 0 2 0 1 
E7 base-fret 1 frets 0 2 2 1 3 0 
C/A base-fret 1 frets X 0 2 0 1 2 
E7b10 base-fret 5 frets 0 2 1 2 3 0 

intro (repeat during verses) 
[A]  [G/A]  [D/A]  [A] 

Little Mary was five years old 
Her parents left her, she was out in the cold 
Alone to live and find her way 
In this great world of heartache and pain 

Eyes of brown, matted locks of gold 
Her flowered dress is tattered and soiled 
Tear stained cheeks, her feet cold and bare 
Who could have left a child so rare 

chorus 

[A]Rosem[G/A]ary, your [D]day will c[Dm6]ome 
He [A]loved you [G/A]so, He gave His [D]only [A]Son 
Keep the [A]faith in your [G/A]soul, stay [D]down on your [Dm6]knees 
I'm [E]begging you please, hold [E7]on to [N.C.]the beads at your [A]heart[G/A]    [D/A]    [A] 

A burning heart and tired eyes 
Howling winds for lullabys 
No one there to soothe her fright 
Nowhere to turn but the inward light 
Because life is for believing 
That your heart can turn to gold 
All you need is Christ to receive it 
There's eternal life for every soul 

chorus 

He [Am]loves you, He [C/A]needs you, He [D/A]wants you, so [E7b10]don't be afraid... 
So don't let Him down 





Comments


Popular Kravitz Lenny tabs & chords
Calling All Angels Chords
Can We Find A Reason Chords
Dont Go And Put A Bullet In Your Head Chords
Heaven Help Chords
Magdalene Chords
My Love Chords
Believe 1 Tabs
Come On And Love Me Tabs
Fields Of Joy 1 Tabs
Stillness Of Heart Tabs


Song lyrics



↑ Back to top | Tablatures and chords are parodies/interpretations of the original songs. You may use it for private study, scholarship, research or language learning purposes only
© 2014 AZChords.com Contact us | Privacy policy | DMCA | Add/correct tabs | Request tabs | Top 50 tabs