>
 >
Are You Gonna Go My Way

Are You Gonna Go My Way Guitar Tabs

Kravitz Lenny - Are You Gonna Go My Way chords, tabs, tablatures, lyrics

Guitar lessons | Add/correct | Request | Top 50 tabs Artists:  A B C D E F G H I J K L M N O P Q R S T U V W X Y Z 0-9

Are You Gonna Go My Way Guitar Tabs – Kravitz Lenny

CD, Sheet music, Poster

Do you like Are You Gonna Go My Way? Share with your friends now
ChordsTabsTabs v2Tabs v3Tabs v4
(Riff a) Full                                           Full          
-||--------------------------------------------------|----------------
-||--------------------------------------------------|----------------
-||*------2-----(2)p0--------------------------------|---2-----(2)----
-||*-------------------2-----------0-----2-----------|----------------
-||--------------------------------------------------|----------------
-||--------------------------0--------------------0--|----------------
                                                                      

                                  (w/ Riff a)    Full                 
----------------------------3--3---||---------------------------------
----------------------------3--3---||---------------------------------
p0---------------------------------||*------------14-----(14)p12------
----2-----------0-----2------------||*--------------------------------
-----------------------------------||---------------------------------
----------0------------------------||---------------------------------
                                                                      

                            P.M.       Full                           
---------------------------------|------------------------------------
---------------------------------|------------------------------------
---------------------------------|------14-----(14)p12----------------
---14------------12--14~~~---12--|-------------------------14---------
----------14---------------------|------------------------------------
---------------------------------|------------------------------------
                                                                      

                     P.M.      I was born                             
---------------------------||-----------------------------------------
---------------------------||-----------------------------------------
--------------------------*||---2-----(2)p0---------------------------
-------12-----14~~~---12--*||-------------------2-----------0---------
14-------------------------||-----------------------------------------
---------------------------||-------------------------0---------------
                                                                      

            Full                                                      
---------|----------------------------------------3--3--|-------------
---------|----------------------------------------3--3--|-------------
---------|---2-----(2)p0--------------------------------|-------------
2--------|----------------2-----------0-----2-----------|-------------
---------|----------------------------------------------|-------------
------0--|----------------------0-----------------------|-------------
                                                                      

(riff b)  So that's...    Full                                        
---------------------------17-----(17)p15---------------------*||-----
-------------------------------------------17------15--17~~~--*||-----
-----------------------------------------------17--------------||-----
                                                                      

                                           (w/ Riff b)                
----------------------------------------|-----------------------------
----------------------------------------|-----------------------------
----------------------------------------|-----------------------------
17--17--x--15--x--14--x--15--x--17--17--|-----------------------------
----------------------------------------|-----------------------------
----------------------------------------|-----------------------------
                                                                      

   Full                                                               
---------------------------------||-----------------------------------
---------------------------------||-----------------------------------
----5-----(5)p3-----------------*||--5--5--x--4--x--3--x--2--x--4-----
-----------------5-----3--5-----*||-----------------------------------
---------------------------------||-----------------------------------
--------------------3--------3---||-----------------------------------
                                                                      

   But  what I really......                                           
|---0--------0--0--------------------------|--0-----0--0--------------
|---3--------3--3-----------------------2--|--2-----2--2--------------
|---4--------4--4-----------------------2--|--2-----2--2--------------
|------------------------------------------|--------------------------
|------------------------------------------|--------------------------
|------------------------------------------|--------------------------
                                                                      

   Slide                                                              
---|----------------------|-----------------|--0-----0--0-------------
2--|--9-----9-----7--9----|--9-----9--12--9-|--3-----3--3-------------
2-/|--9-----9-----7--9---\|--9-----9--12--9\|--4-----4--4-------------
---|----------------------|-----------------|-------------------------
---|----------------------|-----------------|-------------------------
---|----------------------|-----------------|-------------------------
                                                                      

                     w/ Flanger                                       
---------------0--|---------------------------------|--------5--------
---------------2--|---9-----------7--------------7--|--------5--------
---------------2--|---9-----x-----7-----x-----x--7--|--x-----6--------
---------------2--|---9-----------7--------------7--|--------7--------
---------------0--|---------------------------------|-----------------
------------------|---------------------------------|-----------------
                                                                      

                                                                      
---5--||--------------------------------------------------------------
7--5--||--------------------------------------------------------------
7--6\*||--------------------------------------------------------------
7--7-*||--------------------------------------------------------------
------||--------------------------------------------------------------
------||--------------------------------------------------------------





Comments


Popular Kravitz Lenny tabs & chords
A Million Miles Away Bass Tabs
A Million Miles Away Chords
Again Chords
Fly Away Chords
Silver And Gold Chords
Again Tabs
Again 3 Tabs
Is There Tabs
The Difference Is Why Tabs
The Difference Is Why 1 Tabs


Song lyrics



↑ Back to top | Tablatures and chords are parodies/interpretations of the original songs. You may use it for private study, scholarship, research or language learning purposes only
© 2014 AZChords.com Contact us | Privacy policy | DMCA | Add/correct tabs | Request tabs | Top 50 tabs