>
 >
Vestido De Cristal

Vestido De Cristal Guitar Tabs

Kraken - Vestido De Cristal chords, tabs, tablatures, lyrics

Guitar lessons | Add/correct | Request | Top 50 tabs Artists:  A B C D E F G H I J K L M N O P Q R S T U V W X Y Z 0-9

Vestido De Cristal Guitar Tabs – Kraken

CD, Sheet music, Poster

Do you like Vestido De Cristal? Share with your friends now
Tabs
Intro:De teclado 1

1|--------------------|------16------------16-|-16--18-19-18--16--19-|
2|-14/19-17-16-17--19-|-17-19--19-17-16--17---|-----------------19---|
3|--------------------|-----------------------|----------------------|
4|--------------------|-----------------------|----------------------|
5|--------------------|-----------------------|----------------------|
6|--------------------|-----------------------|----------------------|

Guitarra
1|---|-------------------------------|
2|---|-------------------------------|
3|---|-------------------------------|
4|---|-13-14--16-18--18-16-18-20--13-|
5|-5-|-------------------------------|
6|---|-------------------------------|

solo mejore el final.
De teclado 2
1|--------|-----------|-----0-----|---------|
2|--------|---3---3---|-1----1----|--3---3--|
3|---0--0-|----0---0--|--2----2---|---3---3-|
4|-2--4---|-----4---4-|---2----2--|---------| (X3)
5|--------|-3---------|---------0-|-1---1---|
6|-0--0---|-----------|-----------|---------|

despues esto
Guitarra:
1|---------------|
2|---------------|
3|---------------|
4|---------------|
5|-6--8----------|
6|-4--6---6/10/4-|

de teclado cuando dice:
Pero sin miedooo:
1|----------------|
2|----2-4-5--5p4--|
3|-3-4----------4-|
4|----------------|
5|----------------|
6|----------------|

Se quiebra en silencio:
1|-------0-|
2|----2-4--|
3|-3-4-----|
4|---------|
5|---------|
6|---------|

Teclado 2 (X2)

Este es el solo:
Guitar Solo:
1|-19-21-21^----------------------------------16-18-19-18-16-|
2|----------16-17-16-17-16-17-16-17---16-17-19---------------|
3|-----------------------------------------------------------|
4|-----------------------------------------------------------|
5|-----------------------------------------------------------|
6|-----------------------------------------------------------|

1|-19-19^-16---21^-21^-21^-21^-19-18-19^-19^-19^-18-19-18-16-|
2|-----------------------------------------------------------|
3|-----------------------------------------------------------|
4|-----------------------------------------------------------|
5|-----------------------------------------------------------|
6|-----------------------------------------------------------|

1|-16-18-18^-19-21-21^-21^------------|
2|------------------------22^-22^-22^-|
3|------------------------------------|
4|------------------------------------|
5|------------------------------------|
6|------------------------------------|

Despues un teclado que no he podido descifrar

Despues del teclado
Guitarra:
1|------------19-19^-18^-|
2|-20-20^-19-------------|
3|-----------------------|
4|-----------------------|
5|-----------------------|
6|-----------------------|





Comments


Popular Kraken tabs & chords
Esclavos De Las Sombras Chords
Mujer Delfin Chords
Al Caer Las Murallas Tabs
Escudo Y Espada Tabs
Fragil Al Viento Tabs
Mujer Delfin Tabs
Silencioso Amor Intro Tabs
Todo Hombre Es Una Historia Tabs
Dejame Ukulele
Esclavos De Las Sombras Ukulele


Song lyrics



↑ Back to top | Tablatures and chords are parodies/interpretations of the original songs. You may use it for private study, scholarship, research or language learning purposes only
© 2014 AZChords.com Contact us | Privacy policy | DMCA | Add/correct tabs | Request tabs | Top 50 tabs