» » »

Kraken, Muere Libre Tabs (ver.1)

Artists:  A B C D E F G H I J K L M N O P Q R S T U V W X Y Z # 

Muere Libre Tabs (ver.1)

Kraken Tabs
 Rating:
4/5 (4 votes)
Muere Libre lessons Tabs too difficult? Try these video lessons and learn fast
                primero
 los riffs de intro, los versos, punteos y el solo, al
final  la letra poniendo encima de cada parte lo que se
debe hacer, espero que les guste.

Riff ¡:
  E5                          D5
E--------------------------------------------------------------|
B-t8t7-5-t8t7-5-t8t7-5-t8t7-5-t8t10-7-t8t10-7-t8t10-7-t-8t10-7-|
G--------------------------------------------------------------|
D--------------------------------------------------------------|
A--------------------------------------------------------------|
E--------------------------------------------------------------|
  C5                          B5               C5  B5
E---------------------------------------------------------|
B-t8t7-5-t8t7-5-t8t7-5-t8t7-5-t5t7-4-t5t7-4-t5t7-4-t5t7-4-|
G---------------------------------------------------------|
D---------------------------------------------------------|
A---------------------------------------------------------|
E---------------------------------------------------------|
El acompañamiento del riff 1 lo puede hacer el bajo o una
 Segunda guitarra

 Riff 2:
E-------------------------------------------------------|
B-------------------------------------------------------|
G-------------------------------------------------------|
D-9------9------9------9-9-7-7------7------7------7-7-4-|
A-7-7777-7-7777-7-7777-7-7-5-5-5555-5-5555-5-5555-5-5-2-|
E-------------------------------------------------------|
(el riff 2 termina a veces con armónicos forzados con vibrato en
 si o en re, es cuestión de escuchar en que partes cambia)

 Riff 3:
E-------------------------------------------------------|
B-------------------------------------------------------|
G-------------------------------------------------------|
D-9------9------9------9-9-7-7------7-------------------|
A-7-7777-7-7777-7-7777-7-7-5-5-5555-5-555-10^-9^-7^-9^v-|
E-------------------------------------------------------|

Riff 4:
E----------------------------------------------|
B----------------------------------------------|
G-11b12-11-9-11-9-7-7^v-11b12-11-9-11-9-7-9^v--|
D----------------------------------------------|
A----------------------------------------------|
E----------------------------------------------|

Solo:

E-----------------------------------------------------|
B-----------------------------------------------------|
G-11b12-11-9-11-9-7-7^v-11b12-11-9-11-9-7-/12-11v--9v-|
D-----------------------------------------------------|
A-----------------------------------------------------|
E-----------------------------------------------------|

E-------------------------------------------------------------|
B-8p7-----------------8v-10-8--------------8p7----------------|
G-----9-11p9-7-9p7------------11--12-11-9v-----9-11p9-7-9p7---|
D------------------9----------------------------------------9-|
A-------------------------------------------------------------|
E-------------------------------------------------------------|

E----------------------------------------------------------|
B---------------7h8p7---------------7v---7tr-8tr-10tr-12v--|
G-/4v-4v-4v-----------7------9v-5-7----9-------------------|
D-----------7-5---------9-9v-------------------------------|
A----------------------------------------------------------|
E----------------------------------------------------------|

E---------------------------------------------t12-8p7-t14-10p7--|
B-------------------------7x-8x-7-------------------------------|
G-----------------5h7x-9x---------9-7-9-7---7-------------------|
D-9-9-9-9-9-------------------------------9---------------------|
A-7-7-7-7-7-12-10-----------------------------------------------|
E---------------------------------------------------------------|

E-15t-12p8-17t-10p8-t15-10p8-t14-10p8-12tr0tr-----------------------|
B------------------------------------------------7tr-8tr-10tr-12tr--|
G------------------------------------------------6tr-7tr-9tr--10tr--|
D------------------------------------------------4tr-5tr-7tr--9tr---|
A-------------------------------------------------------------------|
E-------------------------------------------------------------------|

E-------------------------------------------------|
B-------------------------------------------------|
G-------------------------------------------------|
D-9-------9-9-7-5-----5----7-------7-7-5-4-----4--|
A-7-77777-7-7-5-3-333-3--0-5-55555-5-5-3-2-222-2--|
E-------------------------------------------------|

E-------------------------------------------------|
B-------------------------------------------------|
G-------------------------------------------------|
D---5-------5-5-4---------------------------------|
A---3-33333-3-3-2-7-----7-------------------------|
E-3---------------5-555-5--3--2^v--3^v--5^v--7v---|

E-------------------------------------------------------------|
B-/17v-------15---------15v----12-13-12b-----13v-------12-----|
G------16-17----17b--14-----14------------12-----12-14----14b-|
D-------------------------------------------------------------|
A-------------------------------------------------------------|
E-------------------------------------------------------------|

E--------------------|
B--------------------|
G-12-11b-12b-14b-16v-|
D--------------------|
A--------------------|
E--------------------|
Finalmente las notas del coro son muy sencillas, encima de la letra
Anoté los acordes
Ahora si, aquí va:

No vivas para ser por temor la presa de otros sueños
                                      Riff 1 (2 veces)
Se vive una vez para ser eternamente libre

Riff 2
Rompe el silencio de un grito que el mundo te escuche no temas actuar
Riff 2
No seas el sueño vencido que teme y vence a quien teme soñar
Riff 2
No seas la copia de un falso bufón se uno, sé tú y nada mas
Riff 3
Se es libre al momento de actuar con razón

   E5          C5        B5                    E5
No vivas para ser por temor la presa de otros sueños
   E5        C5       B5              Riff2
Se vive una vez para ser eternamente libre

Riff 2
Viste según tus razones que va de opiniones no use disfraz
Riff 2
que el grito que lances al viento no muera al momento él es tu verdad
Riff 2
la niebla es espesa y debes cruzar se uno sé tú y nada mas
Riff 3
No seas la presa que espera que espera matar

   E5          C5        B5                    E5
No vivas para ser por temor la presa de otros sueños
   E5        C5       B5              Riff2
Se vive una vez para ser eternamente libre

Riff 4

SOLO

Riff 2
Eres de la tierra la vida su sangre que brota y muere al girar
Riff 2
de el tiempo la esencia el momento, el silencio que emanan y aspira
         Riff 2
al pasar vive soñando encontrar libertad se uno sé tú y bastará
Riff 3
muere luchando por tu libertad

   E5          C5        B5                    E5
No vivas para ser por temor la presa de otros sueños
   E5        C5       B5              Riff2
Se vive una vez para ser eternamente libre

Riff 4 (2 vecees)
            
Submit corrections

comments powered by Disqus
↑ Back to top | Kraken Tabs for Muere Libre. Lyrics for acoustic guitar and electric guitar. Tablatures and chords are parodies/interpretations of the original songs. You may use it for private study, scholarship, research or language learning purposes only