>
 >
Escudo Y Espada

Escudo Y Espada Guitar Tabs

Kraken - Escudo Y Espada chords, tabs, tablatures, lyrics

Guitar lessons | Add/correct | Request | Top 50 tabs Artists:  A B C D E F G H I J K L M N O P Q R S T U V W X Y Z 0-9

Escudo Y Espada Guitar Tabs – Kraken

CD, Sheet music, Poster

Do you like Escudo Y Espada? Share with your friends now
Tabs
INTRO 1:
|----------------------------------------------------------|
|-------------------------------------------------------x2-|
|-------7---------5---------7--------------10--------5-----|
|---7---7-----7---7-----7---7---------5----10--------5-----|
|-5---5-5---5---5-5---5---5-5---5-7-8---7--8---7-8-7-3-----|
|----------------------------------------------------------|

|---------------------------------------------------------------------|
|---------------------------------------------------------------------|
|-------7---------5---------3---------2---------7---------5---------7-|
|-------7---------5---------3---------2-----7---7-----7---5---------7-|
|-2-3-2-5---2-3-3-3---2-3-2-1---2-3-2-0---5---5-5---5---5-3---3-5-3-5-|
|---------------------------------------------------------------------|

INTRO 2:
D5-D5                         D5/C5
|-----------------------------------------------------------------------|
|-----------------------------------------------------------------------|
|-----------------------------------------------------------------------|
|-0-0-15-0-0-14-0-0-15-0-0-14-----15-----15-----14-----15-----14-----15-|
|-----------------------------15-15-15-15--15-15--15-15--15-15--15-15---|
|-----------------------------------------------------------------------|

C5/A#5                     A#5/A5
|-----------------------------------------------------------------------|
|-----------------------------------------------------------------------|
|-----------------------------------------------------------------------|
|------15----14-----15-----14-----15-----15-----14-----15-----14-----15-|
|-13-13-13-13--13-13--13-13--13-13---0-0----0-0----0-0----0-0----0-0----|
|-----------------------------------------------------------------------|


D5              C5/D5
Siempre creíste, tener más suerte
C5/D5                C5
Tan solo señalabas y ya estaba
G5          C5          D5         C5/D5
todo a tus pies te lo entregaban
D5               C5/D5
Te acostumbraste a ser pedante
C5/D5                  C5
Más nunca enfrentabas lo que hacías
G5      C5     D5
Solo... reías

A#5           C5
Aquel tiempo ha pasado
A#5           A5
todo, todo ha cambiado
A#5           C5
ven aquí a la batalla
A#5           A5
hoy te reta el vivir

D5              C5/D5
Te convenciste, y un ciego fuiste

C5/D5                C5
Queriendo simular tu arrogancia
G5          C5          D5         C5/D5
Mira que atrevida es la ignorancia
D5               C5/D5
Quieres perderte y esconderte
C5/D5                  C5
Ahora que la vida te ha retado
G5      C5     D5
con... Limpias manos

A#5           C5
Aquel tiempo ha pasado
A#5           A5
Todo, todo ha cambiado
A#5           C5
Toma escudo y espada
A#5           A5
Hoy te reta el vivir

D5               C5          D5
No es un capricho es realidad
F5             G5            F5
si algo quieres tendrás que luchar
G5           A5        G5    (D5-C5-D5-E#5)
si algo eres podrás demostrar
F#5     F5       E5      C#5
toma tu espada y ven sin dudar

D5     C5      D5
Aquí esta la sociedad
F5        G5     F5
segura de poder triunfar
G5       A5        G5        (D5-C5-D5-E#5)
violenta tal vez infernal
F#5     F5       E5       A5
es el momento debes vencer a morir

|----------------------------------------------------|
|-------------------------------------------------x2-|
|----------------9-----------------------------------|
|-12-10-8----8-----12-10-8-10---12-10-8-------11-----|
|---------12----------------------------12-10--------|
|----------------------------------------------------|

D5               C5          D5
No es un capricho es realidad
F5             G5            F5
si algo quieres tendrás que luchar
G5           A5        G5    (D5-C5-D5-E#5)
si algo eres podrás demostrar
F#5     F5       E5      C#5
toma tu espada y ven sin dudar

D5     C5      D5
Aquí esta la sociedad
F5        G5     F5
segura de poder triunfar
G5       A5        G5        (D5-C5-D5-E#5)
violenta tal vez infernal
F#5     F5       E5       A5
es el momento debes vencer a morir


D5              C5/D5
Siempre creíste, tener más suerte
C5/D5                C5
Tan solo señalabas y ya estaba
G5          C5          D5         C5/D5
todo a tus pies te lo entregaban
D5               C5/D5
Te acostumbraste a ser pedante
C5/D5                  C5
Más nunca enfrentabas lo que hacías
G5      C5     D5
Solo... reías

A#5           C5
Aquel tiempo ha pasado
A#5           A5
Todo, todo ha cambiado
A#5           C5
Toma escudo y espada
A#5           A5
Hoy te reta el vivir

D5               C5          D5
No es un capricho es realidad
F5             G5            F5
si algo quieres tendrás que luchar
G5           A5        G5    (D5-C5-D5-E#5)
si algo eres podrás demostrar
F#5     F5       E5      C#5
toma tu espada y ven sin dudar

D5     C5      D5
Aquí esta la sociedad
F5        G5     F5
segura de poder triunfar
G5       A5        G5        (D5-C5-D5-E#5)
violenta tal vez infernal
F#5     F5       E5       A5
es el momento debes vencer a morir





Comments


Popular Kraken tabs & chords
Dejame Chords
Esclavos De Las Sombras Chords
Al Caer Las Murallas Tabs
Camino A La MontañA Negra Tabs
Fragil Al Viento Tabs
Mujer Delfin Tabs
Silencioso Amor Intro Tabs
Todo Hombre Es Una Historia Tabs
Vestido De Cristal Tabs
Dejame Ukulele


Song lyrics



↑ Back to top | Tablatures and chords are parodies/interpretations of the original songs. You may use it for private study, scholarship, research or language learning purposes only
© 2014 AZChords.com Contact us | Privacy policy | DMCA | Add/correct tabs | Request tabs | Top 50 tabs