» » »

The Lottery Tabs (ver.1)

Artists:  A B C D E F G H I J K L M N O P Q R S T U V W X Y Z # 

The Lottery Tabs (ver.1)

Kottonmouth Kings
Rating:
0/5 (0 votes)

Tabs too difficult? Try these video lessons and learn fast.
                ---13----16---13------------13--------------11--------------------------------
--------------------13--14------13---11-13------11/13--11---------------------
---10----13---10------------10--------------8--------------12/13--12--10------
--------------------10--11------10---8--10-------8/10--8----------------------
-----------------------------------------------------------10/11--10--8-------
                                                                              

---1h3--1---------------------------------------------------------------------
-----------3-----------------------1h3--1-------------------------------------
--------------1----1--1---1-1---------------4---1---1--1-1---1-1--1-----------
 bassline
            
Tabs too difficult? Try these video lessons and learn fast.




comments powered by Disqus
↑ Back to top | Tablatures and chords are parodies/interpretations of the original songs. You may use it for private study, scholarship, research or language learning purposes only