» » »

Spies Tabs (ver.1)

Artists:  A B C D E F G H I J K L M N O P Q R S T U V W X Y Z # 

Spies Tabs (ver.1)

Kottonmouth Kings
Rating:
0/5 (0 votes)

Hard to play? Try these video lessons and learn fast.
                this one goes out to my boy SkAtR01305

------------------------------------------------------------|-----------------
------------------------------------------------------------|-----------------
------------------------------------------------------------|-----------------
---7-------------7---------7--------7---------------3-----7-|-7777777777-7-77-
---5-------------5---------5--------5--------5------1-----5-|-5555555555-5-55-
---------------------------------------------3--------------|-----------------
 sick and tired...(play staccato)                             spies! their    

---------|----------------------|---------------------------------------------
---------|----------------------|---------------------------------------------
---------|----------------------|---------------------------------------------
-7---5--5|----------------------|----7--7---7--7-----5-5--5-5---5--5---3------
-5---3--3|----------------------|----5--5---5--5-----3-3--3-3---5--5---1------
---------|----------------------|----5--5---5--5-----3-3--3-3---3--3---1------
 all around me!      (repeat)    (palm mute these chords)   neighborhood      

 watch is after us...        that the whole song kids. stay high
            
Hard to play? Try these video lessons and learn fast. | Correct




comments powered by Disqus
↑ Back to top | Tablatures and chords are parodies/interpretations of the original songs. You may use it for private study, scholarship, research or language learning purposes only