» » »

Kottonmouth Kings, Soul Surfin' Tabs (ver.1)

Artists:  A B C D E F G H I J K L M N O P Q R S T U V W X Y Z # 

Soul Surfin' Tabs (ver.1)

Kottonmouth Kings Tabs
 Rating:
4/5 (4 votes)
Soul Surfin' lessons Tabs too difficult? Try these video lessons and learn fast
                for the rap parts, use a slightly distorted wah effect

just kinda play around with these two chords:
   D    C
E:---------------------------------|
B:-7----5--------------------------|
G:-7----5--------------------------|
D:-7----5--------------------------|
A:---------------------------------|
E:---------------------------------|

for the punk parts, use pure distortion
   D   F   C   G    A
E:---------------------------------|
B:---------------------------------|
G:-7---10------12------------------|
D:-7---10--10--12---7--------------|
A:-5---8---10--10---7--------------|
E:---------8--------5--------------|

D   D     D D   |F     C   C C   |
1 + 2 + 3 + 4 + |1 + 2 + 3 + 4 + |

D   D     D D   |F     G   G G G |
1 + 2 + 3 + 4 + |1 + 2 + 3 + 4 + |

D   D     D D   |F     C   C C   |
1 + 2 + 3 + 4 + |1 + 2 + 3 + 4 + |

A   A   A   A   |C   C   C   C   |
1 + 2 + 3 + 4 + |1 + 2 + 3 + 4 + |
            
Submit corrections

comments powered by Disqus
↑ Back to top | Kottonmouth Kings Tabs for Soul Surfin'. Lyrics for acoustic guitar and electric guitar. Tablatures and chords are parodies/interpretations of the original songs. You may use it for private study, scholarship, research or language learning purposes only