» » »

Kottonmouth Kings, Kottonmouth Kings Bump Tabs (ver.1)

Artists:  A B C D E F G H I J K L M N O P Q R S T U V W X Y Z # 

Kottonmouth Kings Bump Tabs (ver.1)

Kottonmouth Kings Tabs
 Rating:
4/5 (4 votes)
Kottonmouth Kings Bump lessons Tabs too difficult? Try these video lessons and learn fast
                whats up fellow Stoners Reeking Havok, smoke a blizunt to this. the first 
part is a synthsizer or some sh*t arranged for you guitarists.if any one 
wants any Kottonmouth Kings, EMINEM, Sublime, ect. I'll hook you up...oh yeah 
i also happen to know sh*t loads of rap,i.e. Bone, Snoop Doggy Dogg, Dre, 2 
pac , ect.


------------------------------|-----------------------------------------------
------------------------------|-----------------------------------------------
------------------------------|-----------------------------------------------
---4-4-----4-4-----4-0-----4-0|-----------------------------------------------
-------4-4-----0-0------------|-----------------------------------------------
-2---------------------4-4----|--2---5-4--2--0--2-2---5-4--2--0--2-2--5-4--2--
                repeat 3x        Verse ...and basically the rest of the song  

--------------------|-----------------------------------|---------------------
--------------------|-----------------------------------|---------------------
--------------------|-------------x-x-------------------|---------------------
--------------------|---4---4-4---x-x----4-----4---4----|---------------------
-------2--4-5-5-4--2|---4---4-4---x-x------4-0----------|---------------------
--0--2--------------|---2---2-2---x-x--2---------4----2-|---------------------
 well it's rap what do ya expect.  this part ^ is the chorus
            
Submit corrections

comments powered by Disqus
↑ Back to top | Kottonmouth Kings Tabs for Kottonmouth Kings Bump. Lyrics for acoustic guitar and electric guitar. Tablatures and chords are parodies/interpretations of the original songs. You may use it for private study, scholarship, research or language learning purposes only