» » »

Kottonmouth Kings, Kottonmouth 3 Horny Devils Tabs (ver.1)

Artists:  A B C D E F G H I J K L M N O P Q R S T U V W X Y Z # 

Kottonmouth 3 Horny Devils Tabs (ver.1)

Kottonmouth Kings Tabs
 Rating:
4/5 (4 votes)
Kottonmouth 3 Horny Devils lessons Tabs too difficult? Try these video lessons and learn fast
                please tell me someone's reading this ....there's not enough kottonmouth 
kings fans out there..............oh I feel so alone........ just phuckin' 
wit ya
I threw the bass fill ins as guitar riffs so it sounds a little more 
complete.      and i know EVERY Kottonmouth Kings song ever recorded if 
anyone's interested.


------4------2-------2--2-1-2--2--2---------------0-----------4------2--------
----------------------------------------2p0-----------------------------------
--1/2------0---------------------------------0h2-----2----1/2-----0-----------
-----------------0--------------------0---------------------------------0-----
                                                                              

---5---5---4--5---5-----------------------------------------7---9---10---|----
------------------------------------------------------------10b-12b-13b--|----
---2---2---1--2---2--------7/9\7-------4----2-----2--2-1-2---------------|----
---------------------------7/9\7-----------------------------------------|----
-----------------------7h9---------1/2----0------------------------------|----
-----------------------------------------------0-------------------------|----
            
Submit corrections

comments powered by Disqus
↑ Back to top | Kottonmouth Kings Tabs for Kottonmouth 3 Horny Devils. Lyrics for acoustic guitar and electric guitar. Tablatures and chords are parodies/interpretations of the original songs. You may use it for private study, scholarship, research or language learning purposes only