» » »

Kottonmouth Kings, Here We Go Again Tabs (ver.1)

Artists:  A B C D E F G H I J K L M N O P Q R S T U V W X Y Z # 

Here We Go Again Tabs (ver.1)

Kottonmouth Kings Tabs
 Rating:
4/5 (4 votes)
Here We Go Again lessons Tabs too difficult? Try these video lessons and learn fast
                ---9----9-9---7---9---9-9---12-------9---9-9--7---9---9-9---------------------
-----------------------------------------------------------7h8p7--------------
---7----7-7---5---7---7-7---10-------7---7-7--5---7---7-7--------10-----------
  verse                                                                       

--------12--------------------12----------------------------------------------
-----------------------------------------101110-------------------------------
--------9----9--9---7---------9---9--9---------12-----------------------------
-----------------------------------------7h8p7--------------------------------
---7---------7--7---5----7--------7--7---------10-----------------------------
---0---------0--0--------0--------0--0----------------------------------------
  verse variation                                                             

---------------------------|-------------------------------|------------------
---------------------------|-------------------------------|------------------
---------------------------|------9---7--------------------|------------------
---------------------------|-9----7---5----9----7--7---7---|------------------
---------------------------|-7----7---5----7----5--5---5---|------------------
---------------------------|-7-------------7----5--5---5---|------------------
 "Damn This Bud's Good..."    Chorus                   repeat repeat          

  BUMP !  BUMP! YOU KNOW HOW THE SOUND FLOWS  BUMP! BUMP! YO IT'S L IKE THAT  

 YA KNOW
            
Submit corrections

comments powered by Disqus
↑ Back to top | Kottonmouth Kings Tabs for Here We Go Again. Lyrics for acoustic guitar and electric guitar. Tablatures and chords are parodies/interpretations of the original songs. You may use it for private study, scholarship, research or language learning purposes only