» » »

Kottonmouth Kings, Bi-Polar Tabs (ver.1)

Artists:  A B C D E F G H I J K L M N O P Q R S T U V W X Y Z # 

Bi-Polar Tabs (ver.1)

Kottonmouth Kings Tabs
 Rating:
4/5 (4 votes)
Bi-Polar lessons Tabs too difficult? Try these video lessons and learn fast
                played SUPER fast

first part:
   E       |C B C D |
E:---------|--------|
B:---------|--------|
G:-9-9-----|--------|
D:-9-9---9-|5-4-5-7-|
A:-7-7---7-|3-2-3-5-|
E:---------|--------|
   1 2 3 4 |1 2 3 4 |

punk verse:
   E       |C       |
E:---------|--------|
B:---------|--------|
G:-9-------|5-------|
D:-9-------|5-------|
A:-7-777777|3-333333|
E:---------|--------|
   1 2 3 4 |1 2 3 4 |
     ______   ______
      p.m.     p.m.

chorus:
E:---------|--------|--------|--------|--------|--------|
B:---------|--------|--------|--------|--------|--------|
G:-9-------|--9---8-|7-7---7-|--7-7-7-|5-5---5-|--5-5-5-|
D:-9-------|--9---8-|7-7---7-|--7-7-7-|5-5---5-|--5-5-5-|
A:-7-------|--7---6-|5-5---5-|--5-5-5-|3-3---3-|--3-3-3-|
E:---------|--------|--------|--------|--------|--------|
   1 2 3 4 |1 2 3 4 |1 2 3 4 |1 2 3 4 |1 2 3 4 |1 2 3 4 |

than play "first part" twice

E:---------|--------|--------|--------|--------|--------|
B:---------|--------|--------|--------|--------|--------|
G:-7-7---7-|--7-7-7-|5-5---5-|--5-5-5-|9-------|--------|9
D:-7-7---7-|--7-7-7-|5-5---5-|--5-5-5-|9-------|--------|9
A:-5-5---5-|--5-5-5-|3-3---3-|--3-3-3-|7-------|--------|7
E:---------|--------|--------|--------|--------|--------|
   1 2 3 4 |1 2 3 4 |1 2 3 4 |1 2 3 4 |1 2 3 4 |1 2 3 4 |

rap verse (slow way down):

E:-----------------|    |----------------|----------------|
B:-----------------|    |----------------|----------------|
G:-9---12---10-12~~|    |9---9---9-7-9---|12--------------|
D:-----------------| x4 |9---9---9-7-9---|12--------------|
A:-----------------|    |7---7---7-5-7---|10--------------|
E:-----------------|    |----------------|----------------|
   1 + 2 + 3 + 4 + |    |1 + 2 + 3 + 4 + |1 + 2 + 3 + 4 + |

just play those parts in the appropriate order.  just
listen to the song and you'll get it.
            
Submit corrections

comments powered by Disqus
↑ Back to top | Kottonmouth Kings Tabs for Bi-Polar. Lyrics for acoustic guitar and electric guitar. Tablatures and chords are parodies/interpretations of the original songs. You may use it for private study, scholarship, research or language learning purposes only