» » »

Bad Habbits Tabs (ver.1)

Artists:  A B C D E F G H I J K L M N O P Q R S T U V W X Y Z # 

Bad Habbits Tabs (ver.1)

Kottonmouth Kings
Rating:
2/5 (2 votes)

Hard to play? Try these video lessons and learn fast.
                1/5/2006

e|------------------------------------------|
B|------------------------------------------|
G|------------------------------------------| repeat
D|------------------------------------------| 2 times   
A|--5-5-55-5-5-55-555----3-3-33-3-3-33-333--|
E|--3-3-33-3-3 33-333----1-1-11-1-1-11-111--|
*listen to the song for the rythym  

e|------------------------------------------|
B|------------------------------------------|
G|------------------------------------------|
D|--7-7-77-7-7-77-777----8-8-88-8-8-88-888--|
A|--5-5-55-5-5-55-555----6-6-66-6-6-66-666--|
E|------------------------------------------|


e|------------------------------------------|*thats pretty
B|------------------------------------------|much how the rest  
G|------------------------------------------|of the song goes
D|---------------------7-7-7777--6-6-6666---------------|
A|-5-5-5555--3-3-3333--5-5-5555--6-6-6666---------------|
E|-3-3-3333--1-1-1111-----------------------------------|
            
Hard to play? Try these video lessons and learn fast. | Correct




comments powered by Disqus
↑ Back to top | Tablatures and chords are parodies/interpretations of the original songs. You may use it for private study, scholarship, research or language learning purposes only