>
 >
Wings You Are The Hero

Wings You Are The Hero Guitar Tabs

Kotaro Oshio - Wings You Are The Hero chords, tabs, tablatures, lyrics

Guitar lessons | Add/correct | Request | Top 50 tabs Artists:  A B C D E F G H I J K L M N O P Q R S T U V W X Y Z 0-9

Wings You Are The Hero Guitar Tabs – Kotaro Oshio

CD, Sheet music, Poster

Do you like Wings You Are The Hero? Share with your friends now
Tabs
Wings, You Are the Hero - Kotaro Oshio - Be Happy
Dsus4 Tuning - DADGAD
BPM = 78
                             Harm. 7
            D/F#   G                                    D/F#   G
                             ^         >          >
     Q    S S    S S    E    E     S S S S    S S S S S S    S S
D||-------x-0----x-0-|--L--<>7-----L-------|----------x-0----x-0-|
A||-------x-0----x-0-|--L--<>7-----L---0---|------0---x-0----x-0-|
G||-------x-0----x-0-|--L--<>7-----L---0---|------0---x-0----x-0-|
D||---------4------5-|--L----5-----5-5-5-5-|--5-5-5-5-5-4------5-|
A||---------4------5-|--L----5-----5-5-5-5-|--5-5-5-5-5-4------5-|
D||---------4------5-|--L----5-----5-5-5-5-|--5-5-5-5-5-4------5-|


          T.H. 12 (All Strings)                                 Harm. 7
                                                A D   G
          NH                                                    ^         >
  E  S    S                  S S E      S S S S S S S S    E    E     S S S S
--L----<>12------------------L---0---|--0-0-0-0-x-0-x-0-|--L--<>7-----L-------|
--L----<>12------------------L---0---|--0-0-0-0-x-0-x-0-|--L--<>7-----L---0---|
--L----<>12------------------L---0---|--0-0-0-0-x-0-x-0-|--L--<>7-----L---0---|
--L--5----5------------------L-5-5/--|--9-9-9-7-L-4---5-|--L----5-----5-5-5-5-|
--L--5----5------------------L-5-5/--|--9-9-9-7-L-4---5-|--L----5-----5-5-5-5-|
--L--5----5------------------L-5-5/--|--9-9-9-7-L-4---5-|--L----5-----5-5-5-5-|


                                T.H. 12(All Strings)
            D/F#   G
      >                         NH
  S S S S S S    S S    E  S    S                 S S E
----------x-0----x-0-|--L----<>12-----------------L---0---|
------0---x-0----x-0-|--L----<>12-----------------L---0---|
------0---x-0----x-0-|--L----<>12-----------------L---0---|
--5-5-5-5-5-4------5-|--L--5----5-----------------L-5-5/--|
--5-5-5-5-5-4------5-|--L--5----5-----------------L-5-5/--|
--5-5-5-5-5-4------5-|--L--5----5-----------------L-5-5/--|


          Palm w/ nail attack
          A                   D   G      D
  S S S S S                   S S S      S S  S  S  S  S S  S
--0-0-0-0-x-------------------0-x-0-||---0-0--0--0-------x----|
--0-0-0-0-x-------------------0-x-0-||---0-0--0--0--0----x----|
--0-0-0-0-x-------------------0-x-0-||*--0-0-11-11-11-12---11-|
--9-9-9-7-L-------------------4---5-||*--0----------0--0----0-|
--9-9-9-7-L-------------------4---5-||---0----------0---------|
--9-9-9-7-L-------------------4---5-||---0----------L--0----0-|


                       F#m                  F#m             G
   S  S S S S S S S    S   S S S S S S S    S   S S S S S S S
------0-x-----0-x---|--------------7-----|----------7---------|
------0-x-----0-x---|--------------0-----|----------0---------|
--11-11-x-9-L-7-x-6-|--L---6-x-6-L-6-x-6-|--6---6-x-6-6-6-x-4-|
---0------0-L-----4-|--L---4-x-4-L---x-4-|--4---4-x---4-4-x-0-|
------------------4-|--L---4---4-L-----4-|--4---4-----4-4---x-|
---L------0-L-0---4-|--L-------4-L-----4-|--L-------4-L-----5-|


                           Gadd9            A
  S S S S S S S S    S S S S     S S S S    S S S S S S S S
------------------|--------4-----L-------|------------------|
------x-----------|--------0-----L-0-x-0-|--7-7-7-7-7-5-5-0-|
--L-4-x-4-L-6-x-7-|--L-4-x-4-------4-x-4-|--6-6-6-6-6-6-6-6-|
--L-0---0-L-0-x-0-|--L-0-x---------0---0-|--7-7-7-7-7-7-7-7-|
--------x---------|----------------------|--0-------0-----0-|
--L-----5-L-5---5-|--L-5---5-----L-------|------------------|


          C6        D                                           F#m
  S S S   S S  S S  S    S  S  S  S  S  S S  S    S S S S S S S S
-----------------x----|-------------------x----|----0-x-------x-----|
--L-0-0--12-L-10-x--0-|--L--0--0--0--0----x----|----0-x-------x-----|
--L-0-0---0-L--0---11-|--L-11-11-11-11-12---11-|--L-----9-L-7---6---|
--L-2-2S-10-L-10----0-|--L--0--0--0--0--0----0-|--L-----0-L-0---4---|
--L-2-2S-10-L-10----0-|--L---------------------|----------------4---|
----2-2S-10-L-10----0-|--L-----------L--0----0-|--L-----0-L-0---4---|


                                          G                A
  S S S S S S S S    S S S S S S S S    S S S S S S S S    S S S S S S S S
------------7-----|--------7---------|------------4-----|--0-0-0-0-L-------|
------------0-----|--------0---------|------x-0-0-0-x-0-|--7-7-7-5-L-5-5---|
--L-6-6-6-L-6-x-6-|--6-6-6-6-6-6-6-4-|--L-4-x-4-4-4-x-4-|--6-6-6-6-L-6-6-6-|
--L-4-4-4-L---x-4-|--4-4-4---4-4-4-0-|--L-0---0-0-----0-|--7-7-7-7-L-7-7-7-|
--L-4---4-L-------|--4-4-4---4-4-4---|------------------|--0-----0-L-------|
--L-----4-4-----4-|--L-----4-L-----5-|--L-----5-L-------|------------------|


  Dsus4              D               Asus4    Bm7                    Gadd9
         >
  E      E   S  S S  S    S  S  E  S S     S  S     S  S S  S S  S S S
---------0---0--0-x----|-----0--0----0-----x--0--|--L--0-x-12-L-11---7-----|
---------0---0--0-x----|-----0--0--x-0-----x--0--|--L--0-x--0-L--0-x-0-----|
--------12--12-12---11-|--L-11-11--x-9-------11--|--L-11---11-L-11-x-7-----|
--0-----14--14------12-|--L-12-12----7--------9--|--L-------9-L--9---5-----|
--0------0---L-------0-|--L----------7--------9--|--L-------9-L--9---5-----|
--0--------------------|-------------7--------9--|--L-------9-L--9---5-----|


                Aadd9                  Bm7
  S S S S S S S S        E  S S S S S  S
--L-0-0-0-L-7---9-----|--L----9-L---------|
--L-0-0-0-L-0-x-0-----|--L--x-0-L-0-x-----|
--L-0-0-0-L-7-x-9-----|--L--x-9-L-9-x-11--|
--L-----5-L-----------|-----------7-x--9--|
--L-----5-L-----7-----|--L--------7----9--|
--L-----5-L-----7-----|--L----7-L------9--|


                  T.H. 12(All Strings)
                  A                    G              D    A
                  NH                   NH
  S  S S  S  S    E                    S    S S S S S S S  S
-----0-x--0--0-<>12-----------------<>12-|--L-0-x-0-0-7----0-|
-----0-x--0--0-<>12-----------------<>12-|--L-0-x-0-0-0-x--0-|
--L-11---11-11-<>12-----------------<>12-|--L-0-x-0-0-7-x--9-|
--L--9----9--9----7--------------------5-|--L-------------11-|
--L---------------7--------------------5-|--L----------------|
--L----------9----7--------------------5-|--L-------L--------|


  A                         C6               A      D   G   A
  S  S  S  S  S  S  S S     E   S  S  S  S S S    S S S S S E.
--L--0--0--0--0--0--0-0-|---0---0--------0-0-2-|--L-4---5-L-7---|
--L--0--0--0--0--0--0-0-|---0---0--------0-0-0-|--L-0-x-0-L-0---|
--L-11-11-11-11-11-11-0-|--12--12-11--L--0-0-0-|--L-0-x-4-L-6---|
--L-12-12-12-12-12-12-0-|--10--10-10--L-10---2-|--L-4---5-L-7---|
--------0---------------|--10--10-10--L-10---0-|--L-------------|
--------0---------------|--10-----10--L-10-----|----------------|


   D                                                Bm7
   ^                                                ^
   E   S  S S  S S  S    S  S  S  S  S  S  S  S     E   S  S S  S S  S
--12--12-11-L-12---12-|--L----------------------|--12--12-11-L-14---12-|
---0---0--0-L--0-x--0-|--L--0--0--0--0--0--0--0-|---0---0--0-L--0-x--0-|
--11--11-11-L-11-x-11-|--L-11-11-11-11-11-11-11-|--11-------------x----|
---0------------------|-----0--0--0--0--0--0--0-|---9------------------|
---0------------------|-----------0-------------|----------------------|
---0------0-L--0----0-|--L--------0--L----------|---9------9-L--9----9-|


                            C6                      Bm7
                            ^
  S  S  S  S  S  S  S S     E   S  S S  S  S  S     E   S  S S S S S
--L-------------12----0-|---0---0-------0--0--0-|---0---0------0-0-0-|
--L--0--0--0--0--0--0-0-|---0---0-------0--0--0-|---0---0------0-0-0-|
----11-11-11-11-11-11-0-|--12--12-11-L--0--0--0-|--12--12-11-L-0-0-0-|
-----9--9--9--9--9--9-0-|--10--10-10-L-10-10-10-|---9---9--9-L-9-9-9-|
------------------------|--10----------10-10-10-|---9----------9-9-9-|
--L--------9--L---------|--10-----10-L----------|---9------9-L-------|


   Bbmaj7           A      D   G   A7      D
                                           ^
   E      S S S S S S    S S S S S E.      E   S  S S  S S  S
---0------0-----0-0-2-|--L-4---5-L-7---|--12--12-11-L-12---12-|
---0------0-----0-0-0-|--L-0-x-0-L-0---|---0---0--0-L--0-x--0-|
--10-----10-9-L-0-0-0-|--L-0-x-4-L-6---|--11--11-11-L-11-x-11-|
---8------8-8-L-8-0-2-|--L-4---5-L-7---|---0------------------|
---8------------8---0-|--L-------------|---0------------------|
---8--------8-L-------|----------------|---0------0-L--0----0-|


                             Bm7
                             ^
  S  S  S  S  S  S  S  S     E   S  S S  S S  S    S  S  S  S  S  S  S S
--L----------------------|--12--12-11-L-14---12-|--L-------------12----0-|
--L--0--0--0--0--0--0--0-|---0---0--0-L--0-x--0-|--L--0--0--0--0--0--0-0-|
--L-11-11-11-11-11-11-11-|--11-------------x----|----11-11-11-11-11-11-0-|
-----0--0--0--0--0--0--0-|---9------------------|-----9--9--9--9--9--9-0-|
-----------0-------------|----------------------|------------------------|
--L--------0--L----------|---9------9-L--9----9-|--L--------9--L---------|


   C6                      Bm7                  Bbmaj7            A7sus4
   ^
   E   S  S S  S  S  S     E   S  S S S S S     E      S S S S S  S
---0---0-------0--0--0-|---0---0------0-0-0-|---0------0-----0-0-12-----|
---0---0-------0--0--0-|---0---0------0-0-0-|---0------0-----0-0--0-----|
--12--12-11-L--0--0--0-|--12--12-11-L-0-0-0-|--10-----10-9-L-0-0--0-----|
--10--10-10-L-10-10-10-|---9---9--9-L-9-9-9-|---8------8-8-L-8-0-12-----|
--10----------10-10-10-|---9----------9-9-9-|---8------------8----0-----|
--10-----10-L----------|---9------9-L-------|---8--------8-L------------|


                                                     F  G
                                                     ^  ^
  S  S  S  S S  S S  S    S S S S S S S S    S S S S E  E     S S S S S S S S
--L-12-12-11-L-14---12-|------------------|----------------|--x-0-3-5-6-5-3-0-|
--L--0--0--0-L--0-x--0-|------------------|----------------|--x-0-3-5-6-5-3-0-|
--L--0--0--0-L--0-x-11-|------------------|----------5--4--|--x-0-3-5-6-5-3-0-|
--L-12-12-11-L-14---12-|--x-0-3-5-6-5-3-0-|--x-x-x-x-3--0--|--x-0-3-5-6-5-3-0-|
--L--------0-L---------|--x-0-3-5-6-5-3-0-|--x-x-x-x-3--x--|------------------|
---------------------0-|--x-0-3-5-6-5-3-0-|--x-x-x-x-3--5--|------------------|


              T.Harm.12(All Strings)
  D           F                      G
              NH                     NH
  S  E   S    E                      E     S S S S S S S S
----12\----<>12-------------------<>12--|------------------|
-----------<>12-------------------<>12--|------------------|
-----------<>12-------------------<>12--|------------------|
--0-12\--0----3----------------------5--|--x-0-3-5-6-5-3-0-|
--0------0----3----------------------5--|--x-0-3-5-6-5-3-0-|
--0------0----3----------------------5--|--x-0-3-5-6-5-3-0-|


          Palm w/ Nail Attack
          F                   G                                     Em7
                                                             >
  S S S S E                   E     S S S S S S S S    S S S S E  S S
---------------------------------|--x-0-3-5-6-5-3-0-|---------------0---|
---------------------------------|--x-0-3-5-6-5-3-0-|---------------0---|
----------5-------------------4--|--x-0-3-5-6-5-3-0-|---------------0---|
--x-x-x-x-3-------------------0--|--x-0-3-5-6-5-3-0-|--6-5-3-0----x-2---|
--x-x-x-x-3-------------------x--|------------------|--6-5-3-0----x-2---|
--x-x-x-x-3-------------------5--|------------------|--6-5-3-0----x-2---|


                      F#m6            Gadd9
                             ^                       ^
  S S E  S S S S    S S      E  S S S S        S S   E  S S S S
--L---0--------0-|--L------<>5--------0-----|--L---<>7--L-------|
--L---0--0-0-0-0-|--L-0----<>5--0-0-0-0-----|--L---<>7--L-0-0-0-|
--L-0-0--0-0-0-0-|--L-0----<>5--0-0-0-0-----|--L-0-<>7--L-0-0-0-|
--L-2-2--2-2-2-4-|--L-4------4--4-4-4-5-----|--L-5---5--L-5-5-5-|
--L-2-2--2-2-2-4-|--L-4------4--4-4-4-5-----|--L-5---5--L-5-5-5-|
--L-2-2--2-2-2-4-|--L-4------4--4-4-4-5-----|--L-5---5--L-5-5-5-|


            Use L.H. to tap 12
    Asus4
    NH    TH                     TH    TH
    E     S S                    S S   S S
--<>7-------7----------------------9-------|
--<>7---<>0--------------------<>0-------7-|
--<>7--------------------------------<>0---|
--<>7--------------------------------------|
--<>7--------------------------------------|
--<>7--------------------------------------|


                                  G                       G         D/F# G
    TH    TH    TH    TH    TH              ^      >          >
    T T   T T   T T   T T   S S S S    E    E  S S S S    S S S S S S    S S
--------------------------------x-0-|--L--<>7--L-------|----------x-0----x-0-|
------9-------------------------x-0-|--L--<>7--L---0---|------0---x-0----x-0-|
--<>0-------7-----9-------------x-0-|--L--<>7--L---0---|------0---x-0----x-0-|
--------<>0---<>0---<>0-7-------x-5-|--L----5--5-5-5-5-|--5-5-5-5-5-4------5-|
--------------------------<>0---x-5-|--L----5--5-5-5-5-|--5-5-5-5-5-4------5-|
--------------------------------x-5-|--L----5--5-5-5-5-|--5-5-5-5-5-4------5-|


                               Palm w/ Nail Attack
                       A                           D/F#   G
          NH
  E  S    S S S E      S S S S S                   S    S S
--L----<>12-L---0---|--0-0-0---x-------------------0----x-0--||
--L----<>12-L---0---|--0-0-0-0-x-------------------0----x-0--||
--L----<>12-L---0---|--0-0-0-0-x-------------------0----x-0-*||
--L--5----5-L-5-5/--|--9-9-9-7-7-------------------4------0-*||
--L--5----5-L-5-5/--|--9-9-9-7-7-------------------4------0--||
--L--5----5-L-5-5/--|--9-9-9-7-7-------------------4------0--||


      D          C    Bm7               A     G          D          C    Bm7
      TH         TH   TH      TH        TH    TH         TH         TH   TH
  S   S  S  S    E    E       S  S  S   S S   E.     S   S  S  S    E    E
----<>0--------<>0--<>0--|--<>0-------<>0-L-<>0---|----<>0--------<>0--<>0--|
----<>0--------<>0--<>0--|--<>0-------<>0-L-<>0---|----<>0--------<>0--<>0--|
----<>0--------<>0--<>0--|--<>0-------<>0-L-<>0---|----<>0--------<>0--<>0--|
------0h-3s-5S--10----9--|----0h-3s-5---7-L---5---|------0h-3s-5S--10----9--|
------0h-3s-5S--10----9--|----0h-3s-5---7-L---5---|------0h-3s-5S--10----9--|
------0h-3s-5S--10----9--|----0h-3s-5---7-L---5---|------0h-3s-5S--10----9--|


              T.Harm w/ LH Stroke
    A       F                          Dsus4
    TH      TH                         ^
    E   S   S S                        S E
--<>0-----<>0-L----------------------<>0----|
--<>0-----<>0-L----------------------<>0----|
--<>0-----<>0-L----------------------<>0----|
----7S--5---3-L-------------------0g<>12----|
----7S--5---3-L-------------------0g<>12----|
----7S--5---3-L-------------------0g<>12----|


      B. Hit     T.Harm B. Hit
    TH           TH                TH           TH    TH
    S S      S   S    S S      S   S    S S S   S S   E.
--<>0-x--------<>3----x----------<>5-|--x-----<>6---<>5---|
--<>0-x--------<>3----x----------<>5-|--x-----<>6---<>5---|
--<>0-x--------<>3----x----------<>5-|--x-----<>6---<>5---|
--<>0-x--------<>3----x----------<>5-|--x-----<>6---<>5---|
--<>0-x--------<>3----x-x--------<>5-|--x-x---<>6---<>5---|
--<>0-x------x-<>3----x-x------x-<>5-|--x-x-x-<>6---<>5---|


      B. Hit     T.Harm
                                                     D        D/F#   G
    TH           TH       TH    TH        ^
    S S      S   S    S   S S   S    E    Q.         S S E  S S    S S
--<>0-x--------<>3------<>5---<>0-|-----<>7------|--12-0-0--x-0----x-0-|
--<>0-x--------<>3------<>5---<>0-|-----<>7------|---0-0-0--x-0----x-0-|
--<>0-x--------<>3------<>5---<>0-|-----<>7------|--11-0-0--x-0----x-0-|
--<>0-x--------<>3------<>5---<>0-|-----<>7------|--12--------4------5-|
--<>0-x--------<>3------<>5---<>0-|-----<>7------|---0--------4------5-|
--<>0-x------x-<>3------<>5---<>0-|-----<>7------|---0--------4------5-|


                                                   T.Harm.12(All Strings)
                               D/F#   G
       ^      >          >                         NH
  E    E  S S S S    S S S S S S    S S    E  S    S                   S S E
--0--<>7--L-------|----------x-0----x-0-|--L----<>12-------------------L---0---|
--0--<>7--L---0---|------0---x-0----x-0-|--L----<>12-------------------L---0---|
--0--<>7--L---0---|------0---x-0----x-0-|--L----<>12-------------------L---0---|
--5----5--5-5-5-5-|--5-5-5-5-5-4------5-|--L--5----5-------------------L-5-5/--|
--5----5--5-5-5-5-|--5-5-5-5-5-4------5-|--L--5----5-------------------L-5-5/--|
--5----5--5-5-5-5-|--5-5-5-5-5-4------5-|--L--5----5-------------------L-5-5/--|


          Palm w/ Nail Attack
  A                           D/F#   G
                                               ^      >
  S S S S S                   S    S S    E    E  S S S S
--0-0-0---x-------------------0----x-0-|--L--<>7--L-------|
--0-0-0-0-x-------------------0----x-0-|--L--<>7--L---0---|
--0-0-0-0-x-------------------0----x-0-|--L--<>7--L---0---|
--9-9-9-7-7-------------------4------5-|--L----5--5-5-5-5-|
--9-9-9-7-7-------------------4------5-|--L----5--5-5-5-5-|
--9-9-9-7-7-------------------4------5-|--L----5--5-5-5-5-|


          Palm w/ Nail Attack                     T.Harm.12(All Strings)
  A                           D/F#   G
      >                                           NH
  S S S S S                   S    S S    E  S    S                   S S E
----------x-------------------0----x-0-|--L----<>12-------------------L---0---|
------0---x-------------------0----x-0-|--L----<>12-------------------L---0---|
------0---x-------------------0----x-0-|--L----<>12-------------------L---0---|
--5-5-5-5-5-------------------4------5-|--L--5----5-------------------L-5-5/--|
--5-5-5-5-5-------------------4------5-|--L--5----5-------------------L-5-5/--|
--5-5-5-5-5-------------------4------5-|--L--5----5-------------------L-5-5/--|


          Palm w/ Nail Attack
  A                           D/F#   G
                              >      >
  S S S S S                   S    S S    S S S S S S S S
--0-0-0---x-------------------0----x-0-|----0-3-5-6-5-3-0-|
--0-0-0-0-x-------------------0----x-0-|----0-3-5-6-5-3-0-|
--0-0-0-0-x-------------------0----x-0-|----0-3-5-6-5-3-0-|
--9-9-9-7-7-------------------4------0-|----0-3-5-6-5-3-0-|
--9-9-9-7-7-------------------4------0-|------------------|
--9-9-9-7-7-------------------4------0-|------------------|


        Palm w/ Nail Attack
  S S S S                   Q
---------------------------------||
---------------------------------||
---------------------------------||
--6-5-3-0------------------------||
--6-5-3-0------------------------||
--6-5-3-0------------------------||


Duration Legend
---------------
W - whole
H - half
Q - quarter
E - 8th
S - 16th
T - 32nd
X - 64th
. - note dotted
|-n-|  - n-tuplets


Tablature Legend
----------------
L - tied note
x - dead note
g - grace note
(n) - ghost note
> - accentuded note
NH - natural harmonic
AH - artificial harmonic
TH - tapped harmonic
SH - semi harmonic
PH - pitch harmonic
h - hammer on
p - pull off
b - bend
br - bendRelease
pb - preBend
pbr - preBendRelease
brb - bendReleaseBend
\n/ - tremolo bar dip
\n - tremolo bar dive
-/n - tremolo bar Release up
/n\ - tremolo bar inverted dip
/n - tremolo bar return
-\n - tremolo bar Release down
S - shift slide
s - legato slide
/ -  slide into from below or out of upwards
\ -  slide into from above or out of downwards
~ - vibrato
W - wide vibrato
tr - trill
TP - tremolo picking
T - tapping
S - slap
P - pop
< - fade in
^ - brush up
v - brush down





Comments


Popular Kotaro Oshio tabs & chords
Angels Sunday Tabs
Canon Tabs
Cant Take My Eyes Off You Tabs
Destiny Tabs
Indigo Love Tabs
Landscape Tabs
Last Christmas 1 Tabs
Look Up At The Evening Stars Tabs
Prologue Tabs
Twilight Tabs


Song lyrics



↑ Back to top | Tablatures and chords are parodies/interpretations of the original songs. You may use it for private study, scholarship, research or language learning purposes only
© 2014 AZChords.com Contact us | Privacy policy | DMCA | Add/correct tabs | Request tabs | Top 50 tabs