» » »

The Avenue Tabs (ver.1)

Artists:  A B C D E F G H I J K L M N O P Q R S T U V W X Y Z # 

The Avenue Tabs (ver.1)

K-Os
Rating:
0/5 (0 votes)

Hard to play? Try these video lessons and learn fast.
                -------------------------------------------------------------------------------
                             The Avenue - The K-Os
-------------------------------------------------------------------------------

Tuning: E

Intro:
e|---------------------------------------------------------------------------|
B|------8-10-------8-10---8\7---------7--------8-10------8-10--------x-------|
G|----9----------9-------------8---7---------9---------9---------7-9-x-------|
D|-10----------7--------------------------10---------7-----------------------|
A|---------------------------------------------------------------------------|
E|---------------------------------------------------------------------------|

Verse:
e|---------------------------------------------------------------------------|
B|---------------------------------------------------------------------------|
G|--9---9---9---9---9---9---9---9---9---9---9---9---9---9---9---9------------|
D|----------10--10--7---7---9---9-----------10--10--7---7---9---9------------|
A|---------------------------------------------------------------------------|
E|---------------------------------------------------------------------------|
 Continue doing that until chorus.

Chorus:
e|------------------------------x-x-x-x-8-----x-x-x-x-7----------------------| 
B|--x-x-x-x-8-----x-x-x-x-8-----x-x-x-x-8-----x-x-x-x-7----------------------| 
G|--x-x-x-x-9-----x-x-x-x-9-----x-x-x-x-9-----x-x-x-x-7----------------------|
D|--x-x-x-x-10----x-x-x-x-7--------------------------------------------------|
A|---------------------------------------------------------------------------|
E|---------------------------------------------------------------------------|

e|------------------------------x-x-x-x-7-----x-x-x-x-7----------------------|
B|--x-x-x-x-8----x-x-x-x-8------x-x-x-x-7-----x-x-x-x-7----------------------|
G|--x-x-x-x-9----x-x-x-x-9------x-x-x-x-7-----x-x-x-x-8----------------------|
A|--x-x-x-x-10---x-x-x-x-7---------------------------------------------------|
B|---------------------------------------------------------------------------|
E|---------------------------------------------------------------------------|

Verse 2: Repeat the first one.

Chorus 2: Repeat the first one.

Bridge: Its the same notes from the verse.

Chorus 3: Play the normal chorus two times.

End:
e|---------------------------------------------------------------------------|
B|--x-x---x-x---x-x---x-x---x-x---x-x---x-x---x-x---x-x---x-x---x-x---x-x----|
G|--9-9---9-9---9-9---9-9---9-9---9-9---9-9---9-9---9-9---9-9---9-9---9-9----|
D|---------------------------------------------------------------------------|
A|---------------------------------------------------------------------------|
E|---------------------------------------------------------------------------|
Repeat that until it changes to...

e|---------------------------------------------------------------------------|
B|---------------------------------------------------------------------------|
G|--9-9--9-9-9-9--9--9--9-9-9-9---9--9---9--9--9--9----9-9--9-9-9-9----------|
D|--x-x--x-x-x-x--x--x--x-x-x-x---10-10--10-10-10-10---7-7--7-7-7-7----------|
A|--7-7--7-7-7-7--7--7--7-7-7-7----------------------------------------------|
E|---------------------------------------------------------------------------|
Repeat that until end of song (when guitar stops)


| /  slide up
| \  slide down
| h  hammer-on
| p  pull-off
| ~  vibrato
| +  harmonic
| x  Mute note
===============================================================================
            
Hard to play? Try these video lessons and learn fast. | Correct




comments powered by Disqus
↑ Back to top | Tablatures and chords are parodies/interpretations of the original songs. You may use it for private study, scholarship, research or language learning purposes only